Oops, an error
Loading. Please wait.

Solo Por Tí Tab

by Soraya
71 views 1 this week
no commentswrite comment
1 2 3 4 5
3 more votes to show rating
add to favorites
×
Save as Personal and add changes to this tab that will be seen only by you. Learn more ›
×
You can save this tab as Personal to edit and correct it or add notes. All changes will be seen only by you. Learn more »
save as personal
new!
launch autoscroll
font size
0
reset
how to read this tab
guitar tuner
Autoscroll
slow
fast
+/-
esc
set tempo
stop
Este tema es realmente muy bello.
El secreto esta en poder tocarla a dos guitarras
electroacusticas tal como se indica,
y suena espectacular.

Trate de transcribirla lo mejor posible y espero que la disfruten,
¡a tocar!

 Guitarra 1:
              G              F#/G             A5               A 
|-----3-2-0----------------------------------------------------0--|
|-------------3-----3---------3-----3---------------0----------2--|
|-2/4-4-2-0-------0-----0---------2-----2---------2---2--------2--|
|---------------0-----0---0-----0-----0---0-----2-------2---2--2--|
|---------------------------------------------0-----------0----0--|
|-------------3-------------3-2-------------2---------------------|

Guitarra 2: (Sobre la 1)
           G                 F#/G             A5               A
|-------------------10----------------10-------------5-----7---5--|
|-------------12-------12--------------------------5---5-------5--|
|----------12----12-------12-------11----11------7-------7-----6--|
|-------------------------------12----------12-----------------7--|
|--------------------------------------------------------------7--|
|----------------------------12----------------5---------------5--|

-Aqui empieza la letra-

'No me preguntes por...'

Guitarra 1:
  G              F#/G          A5                  A 
|--------------------------------------------------0--|
|-3-----3---------3-----3---------------3--------3-2--|
|-----0-----0---------2-----2---------2-----2------2--|
|---0-----0---0-----0-----0---0-----2-----2---2----2--|
|---------------------------------0----------------0--|
|-3-------------3-2-------------2---------------------|

Guitarra 2:
  G              F#/G          A5                  A
|-------10----------------10----------5------------5--|
|-----8-----------------------------5-----5--------5--|
|---7------------------11---------7-----7---7------6--|
|-9-----------------12------------------------7----7--|
|--------------------------------------------------7--|
|----------------12-------------5------------------5--|
 '...que              por que te miro asi'

 'si tiembla...

Guitarra 1:
  G              F#/G             A5               A 
|-----------------------0--------------------------0--|
|-3-----3---------3------- -------------0----------2--|
|-----0-----0---------2-----2---------2---2--------2--|
|---0-----0---0-----0-----0---0-----2-------2---2--2--|
|---------------------------------0-----------0----0--|
|-3-------------3-2-------------2---------------------|

Guitarra 2:
  G              F#/G           A5                 A
|-------10----------------10----------5-5p7-----7--5--|
|-----8-----------------------------5-------5------5--|
|---7------------------11---------7----------------6--|
|-9-----------------12-----------------------------7--|
|--------------------------------------------------7--|
|----------------12-------------5------------------5--|
 '...voz   o de nervios empiezo a reir'

 'si te preguntas por...'

Guitarra 1:
  G              F#/G           A5                  
|-----------------------------------------------------------------|
|-3-----3---------3-----3---------------0---------0-----0---------|
|-----0-----0---------2-----2---------2-----2---2-----2-----2-----|
|---0-----0---0-----0-----0---0-----2-----2---2-----2-----2---2---|
|---------------------------------0---------------0-------------0-|
|-3-------------3-2-------------2---------------------------------|

Guitarra 2:
  G              F#/G          A5                  A
|-------10----------------10----------5-------7----5--|
|-----8-----------------------------5-----5--------5--|
|---7------------------11---------7-----7----------6--|
|-9-----------------12-----------------------------7--|
|--------------------------------------------------7--|
|----------------12-------------5------------------5--|
 'que           se agua mi mirar'

 'es que mi amor se desborda...'

Guitarra 1:
  G              F#/G           A5                 A 
|-----------------------0--------------------------0--|
|-3-----3---------3------- -------------0----------2--|
|-----0-----0---------2-----2---------2---2--------2--|
|---0-----0---0-----0-----0---0-----2-------2---2--2--|
|---------------------------------0-----------0----0--|
|-3-------------3-2-------------2---------------------|

Guitarra 2:
  G              F#/G          A5                  
|-------10----------------10----------------5--7--7/9-|
|-----8-----------------------------------------------|
|---7------------------11-------------7-----------7/9-|
|-9-----------------12--------------------------------|
|-----------------------------------------------------|
|----------------12-------------5---------------------|
 '...y cae como un manantial'

Coro:

 'Solo por ti...'

Guitarra 1:
  D5              A               C               G               A
|-------0------------------------------------------------------------------------|
|-----3----3------------0---------------3---------------3---------------2--------|
|---2--------2--------2----2----------0----0----------0----0---0------2----2---2-|
|-0------------0----2--------2------2--------2------0--------0------2--------2---|
|-----------------0------------0--3------------3------------------0--------------|
|-------------------------------------------------3------------------------------|

Guitarra 2:

  D              A                C               G              A
|----------10------------12-------------10-----------------10----------5-|
|---------------------10--------------8------------------------------5---|
|-------11--------------------------9-------------------12---------6-----|
|----12----------------------------------------------12------------------|
|----------------12-------------------------------10---------------------|
|-12------------------------------8------------------------------7-------|
 'amor de mi alma   la luna que excita mi mar y lo adormece en calma'     

 'Solo por ti...'

Guitarra 1:
  D5              A               C               G               
|-------0------------------------------------------------------------------------|
|-----3----3------------0---------------3---------------3---------------3--------|
|---2--------2--------2----2----------0----0----------0----0---0------0----0---0-|
|-0------------0----2--------2------2--------2------0--------0------0--------0---|
|-----------------0------------0--3------------3---------------------------------|
|-------------------------------------------------3---------------3--------------|

Guitarra 2:
  D5             A                C               G              
|----------10------------12-------------10-----------------10---------10-|
|---------------------10--------------8----------------------------------|
|-------11--------------------------9-------------------12-----12--------|
|----12----------------------------------------------12-----------12-----|
|----------------12-------------------------------10---------------------|
|-12------------------------------8--------------------------------------|
 'amor de mis sueños   la unión de la esperanza  de todos mi deseos ... sólo por ti'

-Aqui se comienzan los punteos como al principio, y continua a
  lo largo de la cancion-

Final:
(3:31)

Guitarra 1:
G              F#/G          A5                  A 
|-------3------------------------------------------0--|
|-3---------------3-----3---------------3--------3-2--|
|-----0-----0---------2-----2---------2-----2------2--|
|---0-----0---0-----0-----0---0-----2-----2---2----2--|
|---------------------------------0----------------0--|
|-3-------------3-2-------------2---------------------|

Guitarra 2:
  G              F#/G           A5                 A
|-------10----------------10----------5-5p7-----7--5--|
|-----8-----------------------------5-------5------5--|
|---7------------------11---------7----------------6--|
|-9-----------------12-----------------------------7--|
|--------------------------------------------------7--|
|----------------12-------------5------------------5--|

-Ahora canta:
 'no me preguntes ... por qué'.

Guitarra 1:
  G              F#/G          Em        A5         D5
|--------------------------------------------------0--|
|-3-----3---------------3------------3-------3-2---3--|
|-----0-----0---------2-----2----------0-----------2--|
|---0-----0---0-----0-----0---0---0--------2-------0--|
|----------------------------------------0------------|
|-3-------------3-2-------------0---------------------|

Guitarra 2:
  G              F#/G          Em       A5
|-------10----------------10--------3--------0----------5--5---|
|-----8---------------------------3---3----3---2------5----5/7-|
|---7------------------11-------4------------------2-----------|
|-9-----------------12-----------------------------0-----------|
|----------------------------------------0---------------------|
|----------------12--------------------------------------------|

Cualquier duda, comentario acerca de este tab, escriban a mi mail,
estare espernado sus opiniones.
BYE.
Suggest correction
Give kudos to tab author, rate the tab!
1 2 3 4 5
comments
print report bad tab
guest
Wanna post a correction for this tab? Suggest correction