Oops, an error
Loading. Please wait.

Como Un Sueño Tab

7 views 1 this week
no commentswrite comment
1 2 3 4 5
3 more votes to show rating
add to favorites
launch autoscroll
font size
0
reset
how to read this tab
guitar tuner
Autoscroll
slow
fast
+/-
esc
set tempo
stop
Help us to improve Ultimate-Guitar.com Take our survey!
×
Riff intro:

 Am                F
---------------------------------------
---------------------------------------
---------------------------------------
----------------5--7-7-775--7-7-775-5--
-7-7-775--7-7-77-----------------------
---------------------------------------

Am                 F                 Am
---------------------------------------
---------------------------------------
---------------------------------------
----------------5--7-7-775--7-7-77575--
-7-7-775--7-7-77---------------------7-
---------------------------------------


Am               C          G
  La mañana la pasé soñando fútiles
Am                      C          G
  intentos por reconstruir sueños inútiles
Dm                F                        Dm
  Pero sigo sin saber si estoy realmente aquí
                  F       G
  o es sólo la ilusión de un intento

Am                    C              G
  En la tarde me levanté queriendo investigar
Am                  C                G
  de la vida y el café que enfría si no apurás
Dm                F                 Dm
  Pero sigo sin poder pararme sin caer
                   F      G
  y yo sigo sin querer quedarme solo


Estribillo:
Am         F
  Como un sueño
         C                G
  que se pasa la vida buscando un dueño
Am         F
  Son los días
      C                      G
  que pasa en la esquina cargando mi vida


Repite Riff intro


Am                      C                  G
  Cae la noche en mi ciudad con puertas cerrándose
Am                      C                G
  y yo me vengo a desayunar con luces guiándome
Dm                F                 Dm
  Pero sigo sin poder pararme sin caer
                   F      G
  y yo sigo sin querer quedarme solo


Repite Estribillo

Repite Estribillo

Solo:

  Bm              F             Am
--------------------------------------------
--------------------------------5-5-------5-
--7---4-----4-7-4-7-5-------5-7-----7-------
----------7---------------7-----------7-----
--------------------------------------------
--------------------------------------------

       G               Bm              F
--------------------------------------------
5-----------5-------------------------------
--7----7------7--------7---4-----4-7-4-7-5--
----7-----------5---55---------7------------
--------------------------------------------
--------------------------------------------

        Am                   G
-----------------------------------------------
--------5-5---------5-5---------5--------------
----5-7-----7---5-7-----7----7----7------------
--7-----------7-----------7---------5-/5-/5-/5-
-----------------------------------------------
-----------------------------------------------


Dm                F                 Dm
  Pero sigo sin poder pararme sin caer
                   F      G
  y yo sigo sin querer quedarme solo

Repite Estribillo

Repite Estribillo
Suggest correction
Give kudos to tab author, rate the tab!
1 2 3 4 5
comments
print report bad tab
guest
You may want to rate the tab now too:
select rating
Wanna post a correction for this tab? Suggest correction