Oops, an error
Loading. Please wait.

Eres Todo Para Mí Tab

72 views 1 this week
no commentswrite comment
1 2 3 4 5
3 more votes to show rating
add to favorites
launch autoscroll
font size
0
reset
how to read this tab
guitar tuner
×
Best way to learn
"Eres Todo Para Mí"
Autoscroll
slow
fast
+/-
esc
set tempo
stop
Hola, no envio los acordes porque los que subio nuestro hno esta
bien solo subirre el intro y el solo BENDICIONES.

Ojo son varias veces el punteo pro no los e contado, lleven
el tiempo de sus punteos segun  el compas de la cancion.

INTRO:
e-----------------------------------------------------------
B-5-7-9--5-7-9--5-7-9--10-9--5-7-9--10-9-9-10-10------------
G---------------------8------------7----6-------------------
D-----------------------------------------------------------
A-----------------------------------------------------------
E-----------------------------------------------------------

ADORNO ANTES DEL VERSO 2:
e--17-16-14--------------
B----------17-(4 veces)--
G------------------------
D------------------------
A------------------------
E------------------------

ANTES DEL SOLO:
e-17-17-16-15----------------------------
B------------17-17----17----(12 veces)---
G-----------------15-17--17--------------
D----------------------------------------
A----------------------------------------
E----------------------------------------

SOLO:
e------------------------11-11-11-12-12--------12-12-14-14-14-14
B-9-9-9--7-7-7--10-10-10---------------12-12-12-----------------
G--9-9--7-7-7-----9--9------------------------------------------
D---------------------------------------------------------------
A---------------------------------------------------------------
E---------------------------------------------------------------


Espero que les sirva Dios los Bendiga
Suggest correction
Give kudos to tab author, rate the tab!
1 2 3 4 5
comments
print report bad tab
guest
You may want to rate the tab now too:
select rating
Wanna post a correction for this tab? Suggest correction