Oops, an error
Loading. Please wait.

Me Vuelvo A Tí Tab

56 views 1 this week
no commentswrite comment
1 2 3 4 5
3 more votes to show rating
add to favorites
launch autoscroll
font size
0
reset
how to read this tab
guitar tuner
×
Best way to learn
"Me Vuelvo A Tí"
Autoscroll
slow
fast
+/-
esc
set tempo
stop
HOLA BENDICIONES DIOS PUSO EN MI CORAZON PUBLICAR ESTOS ACORDES
Y AHI LOS TIENEN
INTRO:D-A-B-G
EN PUNTEOS:
e|-----------------------------------------------------
B|-8-8-7-5------------5-5-8-7-5------------------------
G|--7-7-7-7-(3 veces)--7-7-----7-(2 veces)toda junto --
D|-----------------------------------------------------
A|-----------------------------------------------------
E|-----------------------------------------------------
Bm             G
 Hay algo en mi corazon
Em                 G
 es una oracion en mi interior
Bm    A         G
 un milagro necesito hoy
Em     A       G
 solo tu solo tu

lo haras señor

e|-10--10--12--12------
B|---12--12--12--12----
G|---------------------
D|---------------------
A|---------------------
E|---------------------

D                A            B
 Hoy me vuelvo a ti a tu corazon
              G
lo que quiero es arder, es arder por ti
D                A
 hoy me vuelvo a ti señor
            B
al primer amor
           G
por ti por ti

e--------------10-10--------
B--8-7-5-------10-10-8-7-5--
G-------7-----------------7-
D---------------------------
A---------------------------
E---------------------------

Bm               G
 Me humillo ante tu amor
Em                  G
 vivire siempre con tu pasion
Bm     A         G
 mi pasado perdonastes Dios
Em     A        G
 ahora tu vives en mi corazon

e|-10--10--12--12------
B|---12--12--12--12----
G|---------------------
D|---------------------
A|---------------------
E|---------------------

D                A            B
 Hoy me vuelvo a ti a tu corazon
              G
lo que quiero es arder, es arder por ti
D                A
 hoy me vuelvo a ti señor
            B
al primer amor
           G
por ti por ti

  B             C#
///No te fallare
             D   en octavas C#-D
no te fallare señor///

OJO CON LA COMBINACION DE OCTAVAS QUE SE HACEN

           BC#D       E  F#            BC#D       E  F#
Vivo para ti,  Vivo para ti, Vivo para ti, Vivo para ti

D                A            B
 Hoy me vuelvo a ti a tu corazon
              G
lo que quiero es arder, es arder por ti
D                A
 hoy me vuelvo a ti señor
            B
al primer amor
           G
por ti por ti


D     D#-E       A            B
 Hoy me vuelvo a ti a tu corazon
              G
lo que quiero es arder, es arder por ti
D                A
 hoy me vuelvo a ti señor
            B
al primer amor
           G
por ti por ti

e--------------10-10--------
B--8-7-5-------10-10-8-7-5--
G-------7-----------------7-
D---------------------------
A---------------------------
E---------------------------

DIOS LOS BENDIGA
Suggest correction
Give kudos to tab author, rate the tab!
1 2 3 4 5
comments
print report bad tab
guest
You may want to rate the tab now too:
select rating
Wanna post a correction for this tab? Suggest correction