Oops, an error
Loading. Please wait.

Mis Sueños Tab

36 views 1 this week
no commentswrite comment
1 2 3 4 5
3 more votes to show rating
add to favorites
launch autoscroll
font size
0
reset
how to read this tab
guitar tuner
Autoscroll
slow
fast
+/-
esc
set tempo
stop
Hola espero que les sirvan los  pondre las notas porque
se tokan en quintas no pondre si son mayores o menores.

Intro://A-C#//

e----------------------------------------------------------------
B-5-5-5-4-4-4---------------------5-5-5-4-4-4--------------------
G-------------2-2-2-2-2-2-2-2-2-2------------9-9-9-9-9-9-9-9-9-9-
D----------------------------------------------------------------
A---------------------(2 VECES)----------------------------------
E----------------------------------------------------------------

VERSO:
A
 Te doy mis deseos hoy
C#      E   D#
 Mi futuro esta en ti
A
 Lo que tengo y lo que soy
C#      E     D#
 Yo te pertenezco a ti
A
 Tus palabras y tu voz
C#       E     D#
 Tus promesas son verdad
A
 Lo que tengo y lo que soy
C#      E     D#
 Yo te pertenezco a ti

PRE-CORO:
C#                  E-F#-G#(F#YG# EN OCTAVAS)
 Puedes hacer realidad
       B     F#
 Mis sueños hoy

Coro:
A        E
 Tu amor toma lo que soy
B                  F#
 Pongo todos mis sueños en tu amor
A         E
 Mi fe esta segura en ti
B             F#
 Mi Dios el dueño de mi ser
C#              E
  Y yo creo en ti, Cristo
F#             A
  Y yo creo en ti
C#             E
  Y yo creo en ti, Cristo
F#             A
  Y yo creo en ti

e----------------------------------------------------------------
B-5-5-5-4-4-4---------------------5-5-5-4-4-4--------------------
G-------------2-2-2-2-2-2-2-2-2-2------------9-9-9-9-9-9-9-9-9-9-
D----------------------------------------------------------------
A---------------------(2 VECES)----------------------------------
E----------------------------------------------------------------

VERSO2:
A
 Tus palabras y tu voz
C#       E     D#
 Tus promesas son verdad
A
 Lo que tengo y lo que soy
C#      E     D#
 Yo te pertenezco a ti

PRE-CORO:

 C#                  E-F#-G#(F#YG# EN OCTAVAS)
 Puedes hacer realidad
       B     F#
 Mis sueños hoy

Coro:

Coro:
A        E
 Tu amor toma lo que soy
B                  F#
 Pongo todos mis sueños en tu amor
A         E
 Mi fe esta segura en ti
B             F#
 Mi Dios el dueño de mi ser
C#              E
  Y yo creo en ti, Cristo
F#             A
  Y yo creo en ti
C#             E
  Y yo creo en ti, Cristo
F#             A
  Y yo creo en ti

Y yo creo en ti
Y yo creo en ti
Y yo creo en ti
Y yo creo en ti
Y yo creo en ti x7

 Coro:

                   E-F#-B
 Tu amor toma lo que soy
B                  F#
 Pongo todos mis sueños en tu amor
A         E
 Mi fe esta segura en ti
B             F#
 Mi Dios el dueño de mi ser
C#              E
  Y yo creo en ti, Cristo
F#             A
  Y yo creo en ti
C#             E
  Y yo creo en ti, Cristo
F#             A
  Y yo creo en ti
C#    E-----D#    A   Ab     B
 creemos en ti... creemos en ti
               A
 creemos en ti... creemos en ti
Suggest correction
Give kudos to tab author, rate the tab!
1 2 3 4 5
comments
print report bad tab
guest
Wanna post a correction for this tab? Suggest correction