Oops, an error
Loading. Please wait.

Todos Te Conocerán Tab

26 views 1 this week
no commentswrite comment
1 2 3 4 5
3 more votes to show rating
add to favorites
launch autoscroll
font size
0
reset
how to read this tab
guitar tuner
×
Best way to learn
"Todos Te Conocerán"
Autoscroll
slow
fast
+/-
esc
set tempo
stop
Hola esta cancion consta de punteos, todo el verso son punteos a
excepcion del coro espero que lo entiendan.

Intro:

e---------------------------------------
B-9-12-12-9-9-9-9-9-9-9-9-9-9-9-9-10-9--
G-9-9--9--9-9-9-9-9-9-9-9-9-9-9-9-9--9--
D---------------(4veces)----------------
A---------------------------------------
E---------------------------------------

e---------------------------------------
B-9-10-12-12----------------------------
G-9-9-----------------------------------
D---------------------------------------
A---------------------------------------
E---------------------------------------

Verso:

 Señor
 Rescátame de todo
 No quiero estar lejos de ti
 Pon tu espíritu en mi ser
 Pon tu voz en mi canción
 No quiero estar lejos de ti

e---------------------------------------
B-9-12-12-9-9-9-9-9-9-9-9-9-9-9-9-10-9--
G-9-9--9--9-9-9-9-9-9-9-9-9-9-9-9-9--9--
D---------------(5veces)----------------
A---------------------------------------
E---------------------------------------

Pre-coro:

 Y tu vendrás a todos los
 Que se rindan a tiii

e-----------------------------------12------14--14--14-
B-9-9-10-10-9-9-10-10-9-10-12-12-12-12-12-12--12--12---
G------------------------------------------------------
D-----------------(2 veces)----------------------------
A------------------------------------------------------
E------------------------------------------------------

CORO:En las notas que uds ven juntas es porque se usan 
cancion es con quinats por eso no voy a poner mayor o menor.

E          B
 Te amamos a ti

 Jesus solo a ti
  C#       D#       E
 Queremos ver tu gloria
 A
 En toda nuestra nación
 E           F#       G#
 Todos te conocerán a ti
 B
 Todos te conocerán a ti
     C#     D#   E
 Sus vidas cambiaran
          A
 Por todo lo que tú has hecho en mí

Verso2:

 Señor
 Muéstrales hoy tu majestad
 Porque no hay nadie como tu
 Pon tu espíritu en mi ser
 Pon tu voz en mi canción
 Porque no hay nadie como tu

e---------------------------------------
B-9-12-12-9-9-9-9-9-9-9-9-9-9-9-9-10-9--
G-9-9--9--9-9-9-9-9-9-9-9-9-9-9-9-9--9--
D---------------(5veces)----------------
A---------------------------------------
E---------------------------------------


 Y tu vendrás a todos los
 Que se rindan a tiii

e-----------------------------------12------14--14--14-
B-9-9-10-10-9-9-10-10-9-10-12-12-12-12-12-12--12--12---
G------------------------------------------------------
D-----------------(2 veces)----------------------------
A------------------------------------------------------
E------------------------------------------------------

Coro:

  E          B
// Te amamos a ti

 Jesus solo a ti
  C#       D#       E
 Queremos ver tu gloria
 A
 En toda nuestra nación
 E           F#       G#
 Todos te conocerán a ti
 B
 Todos te conocerán a ti
     C#     D#   E
 Sus vidas cambiaran
          A
 Por todo lo que tú has hecho en mí//

Punteos:

e-----------------------------------------
B-12--12-12-9--9-9-12--12-12-9-9-10-9-----
G-9---9--9--9--9-9-9---9--9--9-9-----11---
D-----------------------------------------
A-----------------------------------------
E-----------------------------------------

e-----------------------------------------
B-12--12-12-9--9-9-12--12-12-9-9-10-9-----
G-9---9--9--9--9-9-9---9--9--9-9-----11-9-
D-----------------------------------------
A-----------------------------------------
E-----------------------------------------

e-----------------------------------------
B-12--12-12-9--9-9-12--12-12-9-9-10-9-----
G-9---9--9--9--9-9-9---9--9--9-9-----11---
D-----------------------------------------
A-----------------------------------------
E-----------------------------------------

e-----------------------------------------
B-12--12-12-9--9-9-12--12-12-9-9-10-9-----
G-9---9--9--9--9-9-9---9--9--9-9-----11-9-
D-----------------------------------------
A-----------------------------------------
E-----------------------------------------

 Tuyo es mi corazón

e-----------------------------------------
B-12--12-12-9--9-9-12--12-12-9-9-10-9-----
G-9---9--9--9--9-9-9---9--9--9-9-----11---
D-----------------------------------------
A-----------------------------------------
E-----------------------------------------

e-----------------------------------------
B-12--12-12-9--9-9-12--12-12-9-9-10-9-----
G-9---9--9--9--9-9-9---9--9--9-9-----11-9-
D-----------------------------------------
A-----------------------------------------
E-----------------------------------------

 Tuyo es mi corazón

e-----------------------------------------
B-12--12-12-9--9-9-12--12-12-9-9-10-9-----
G-9---9--9--9--9-9-9---9--9--9-9-----11---
D-----------------------------------------
A-----------------------------------------
E-----------------------------------------

e-----------------------------------------
B-12--12-12-9--9-9-12--12-12-9-9-10-9-----
G-9---9--9--9--9-9-9---9--9--9-9-----11-9-
D-----------------------------------------
A-----------------------------------------
E-----------------------------------------


 Tuyo es mi corazón

e-----------------------------------------
B-12--12-12-9--9-9-12--12-12-9-9-10-9-----
G-9---9--9--9--9-9-9---9--9--9-9-----11---
D-----------------------------------------
A-----------------------------------------
E-----------------------------------------

e-----------------------------------------
B-12--12-12-9--9-9-12--12-12-9-9-10-9-----
G-9---9--9--9--9-9-9---9--9--9-9-----11-9-
D-----------------------------------------
A-----------------------------------------
E-----------------------------------------

 Tuyo es mi corazón

e-----------------------------------------
B-12--12-12-9--9-9-12--12-12-9-9-10-9-----
G-9---9--9--9--9-9-9---9--9--9-9-----11---
D-----------------------------------------
A-----------------------------------------
E-----------------------------------------

e----------------------------12-12-12-12--
B-12--12-12-9--9-9-12--12-12-12-12-12-12--
G-9---9--9--9--9-9-9---9--9---------------
D-----------------------------------------
A-----------------------------------------
E-----------------------------------------

CORO:

 E          B
// Te amamos a ti

 Jesus solo a ti
  C#       D#       E
 Queremos ver tu gloria
 A
 En toda nuestra nación
 E           F#       G#
 Todos te conocerán a ti
 B
 Todos te conocerán a ti
     C#     D#   E
 Sus vidas cambiaran
          A
 Por todo lo que tú has hecho en mí//

Final:

e-----------------------------------------
B-12--12-12-9--9-9-12--12-12-9-9-10-9-----
G-9---9--9--9--9-9-9---9--9--9-9-----11---
D-----------------------------------------
A-----------------------------------------
E-----------------------------------------

e-----------------------------------------
B-12--12-12-9--9-9-12--12-12-9-9-10-9-----
G-9---9--9--9--9-9-9---9--9--9-9-----11-9-
D-----------------------------------------
A-----------------------------------------
E-----------------------------------------
Suggest correction
Give kudos to tab author, rate the tab!
1 2 3 4 5
comments
print report bad tab
guest
You may want to rate the tab now too:
select rating
Wanna post a correction for this tab? Suggest correction