Oops, an error
Loading. Please wait.

Tu Regresarás Tab

25 views 1 this week
no commentswrite comment
1 2 3 4 5
3 more votes to show rating
add to favorites
×
Save as Personal and add changes to this tab that will be seen only by you. Learn more ›
×
You can save this tab as Personal to edit and correct it or add notes. All changes will be seen only by you. Learn more »
save as personal
new!
launch autoscroll
font size
0
reset
how to read this tab
guitar tuner
Autoscroll
slow
fast
+/-
esc
set tempo
stop
Hola espero que les sirvan estos acordes:

Intro://A-C#m-E-B//

En Punteos:

e----------------------------------------------
B-12-12-12-----------12-12-12---------9--------
G----------9-9-11-13----------11-9-11---11-9-9-
D----------------------------------------------
A---------------(Todo 2 veces)-----------------
E----------------------------------------------

Verso:

A                    C#m
 Tu buscas en todo lugar
           E    B
 la humanidad, gente
                    A
 que viva en tu verdad
                C#m
 y haga tu voluntad
                  E                     B
 y te amen de verdad y te amen de verdad

Pre-coro:

A       E        B         A
 Enviame.. yo ire y hablare

Coro:

A                       E
  Oramos y esperamos Dios
             B             A
  tu regresaras tu regresaras
C#m                    E
  y al oir nuestro clamor
                  B             A
  todos se postraran y te adoraran

Punteo:Ojo comienza con un slash desde la segunda cuerda del traste
       5; hasta la segunda cuerda del traste 12.

Notas:A-C#m-E-B

e------------------------------------------------------
B-12-12-12-12-12-12-12-12-12-12-12---------------------
G----------------------------------9-9-11-13-13--------
D------------------------------------------------------
A------------------------------------------------------
E------------------------------------------------------

e------------------------------------------------------
B-12-12-12-12-12-14-14-14-14-14---------------9--------
G-------------------------------11-11-11-9-11---11-9-9-
D------------------------------------------------------
A------------------------------------------------------
E------------------------------------------------------


A                    C#m
 Tu siempre das con pasion
         E       B
 y das amor a aquellos
                   A
 que vivan en verdad
                  C#m
 y hagan tu voluntad
  E                                    B
 y te amen de verdad y te amen de verdad

Pre-coro:

A       E        B         A
 Enviame.. yo ire y hablare

Coro:En quintas

A                       E
  Oramos y esperamos Dios
             B             A
  tu regresaras tu regresaras
C#m                  D#-E
  y al oir nuestro clamor
                  B             A
  todos se postraran y te adoraran

A                       E
  Oramos y esperamos Dios
             B             A
  tu regresaras tu regresaras
C#m                  D#-E
  y al oir nuestro clamor
                  B             A
  todos se postraran y te adoraran


          C#m              E
 cantamos Santo.. cantamos Santo
         B            A
 regresaras.. regresaras

          C#m              E
 cantamos Santo.. cantamos Santo
         B            A
 regresaras.. regresaras

En quintas:

          C#m              E
 cantamos Santo.. cantamos Santo
         B            A
 regresaras.. regresaras

  C#mD#-E-C#m              E
 cantamos Santo.. cantamos Santo
         B            A
 regresaras.. regresaras

A                       E
  Oramos y esperamos Dios
             B             A
  tu regresaras tu regresaras
C#m                  D#-E
  y al oir nuestro clamor
                  B             A
  todos se postraran y te adoraran

En notas:A-C#m-E-B

e-------------------------------------------------
B-12-12-12-----------12-12-12-14--------9---------
G----------9-9-11-13-------------11-9-11---11-9-9-
D-------------------------------------------------
A---------------(Todo 2 veces)--------------------
E-------------------------------------------------
Suggest correction
Give kudos to tab author, rate the tab!
1 2 3 4 5
comments
print report bad tab
guest
Wanna post a correction for this tab? Suggest correction