Oops, an error
Loading. Please wait.

Bufón Bass Tab

version 1
version 1

Whole song

Interactive

23 views 1 this week
no commentswrite comment
1 2 3 4 5
3 more votes to show rating
add to favorites
launch autoscroll
font size
0
reset
guitar tuner
Autoscroll
slow
fast
+/-
esc
set tempo
stop
Help us to improve Ultimate-Guitar.com Take our survey!
×
Aki va(sin mas):

empieza kon una guitarra,y kuando entra el bajo
haze esto:

--------------------
--------------------Esto se repite tres vezes
-----3------5-------
-0-0----0-0----0----

Y para akabar esta parte aze asi:

--------------------
--------------------
-5------------------
---0-3-3-5-5-3-3----

Aki ya empieza la letra:

--------------------
--------------------
-----3------3-------
-0-0----0-0----0----

Mire usted!baile bufon!
Para el tirano del imperio mundial!(asi sigue)

Par kojer el estribillo se haze esto:

----------------------------------------
----------------------------------------
-3-------------------3-3-3-3-5-5-5------
---0-5-5-5-5-3-3--0---------------------

Bueno el estribillo es igual ke el prinzipio,asi
ke ya esta todo..

Si teneis alguna duda me mandais un e-mail
a: fercalcar@

Au salut i punyo n´alto!
Suggest correction
Give kudos to tab author, rate the tab!
1 2 3 4 5
comments
print report bad tab
guest
You may want to rate the tab now too:
select rating
Wanna post a correction for this tab? Suggest correction