Oops, an error
Loading. Please wait.

Jose Andrés Tab

14 views 1 this week
no commentswrite comment
1 2 3 4 5
3 more votes to show rating
add to favorites
launch autoscroll
font size
0
reset
how to read this tab
guitar tuner
Autoscroll
slow
fast
+/-
esc
set tempo
stop
Help us to improve Ultimate-Guitar.com Take our survey!
×
INTRO

1)

Guitarra 1
--------------------(7)--------------
------------(7)----------------------
--------(7)-----(7)------------------
--------------------------------(7)--
----(7)---------------------(7)------
--0-----------------------0----------

Guitarra 2
------------------
--18s19b----------
--18s19b--19--16--
------------------
------------------
------------------

2)

Guitarra 1
----------------------------------
----------------------------------
----------------------------------
----------------------------------
-----4-----5---------4-----8-7-5--
--0--2--0--3--0---0--2--0--6-5-3--

Guitarra 2
---------------------------------16---------------
-------11s?---------11s?--------------------11s?--
--------------------------------------------------
--------------------------------------------------
--2------------2------------2----------2----------
--0------------0------------0----------0----------

3)

Guitarra 1
------------------------------------------
------------------------------------------
------------------------------------------
------------------------3-----------------
--2---------------------1-----------------
--0---------------------------------------

Guitarra 2
-------0-----0-----0----------------------
---------0-----0-----0--------------------
-----------0-----0-------------3---2-3----
-----------------------------3---3-----3--
------------------------1-----------------
--0---------------------------------------

4)

---------------------
---------------------
---------------------
---------------------
--8-7-5--8-7-5--8-7--
--6-5-3--6-5-3--6-5--

5)

------------------------------------------------------------
------------------------------------------------------------
------------------------------------------------------------
----------------3------------------------------------3------
--2-2--5--2-----1--2-----5-----8-7-5---2-2--5--2-----1--2---
--0-0--3--0--0-----0--0--3--0--6-5-3---0-0--3--0--0-----0--0
  PM.        PM       PM               PM.        PM      PM

-------------------
-------------------
-------------------
-------------------
----5-----8--7--5--
-0--3--0--6--5--3--
 .......


VERSO

1) (José Andrés es...)
                        (x2)        (x2)
---------------------------¡-------¡------------------------
---------------------------¡-------¡------------------------
---------------------------¡-------¡------------------------
---------------------------¡-------¡------------3-----------
-------5--2-----------5--2-¡-8-7-5-¡------5--2--1-----------
--0-0--3--0--0-0-0-0--3--0-¡-6-5-3-¡-0-0--3--0-----0-0-0-0--
  PM.        PM.....                 PM.           PM.....

      
---------¡-
---------¡-
---------¡-
-------3-¡-
-5--2--1-¡-
-3--0----¡-

2) (...tiene un pitilín)

Tocar lo mismo que en Intro 5


PRE-CHORUS (...cara chorra)

-------------------------------
-------------------------------
-------------------------------
-------------------------------
--8-7-5--8--8-7-3--5--8--7--5--
--6-5-3--6--6-5-1--3--6--5--3--
                      PM.....


CHORUS

1)
                                               xxxxx
----------------------------------------------¡-----¡--
----------------------------------------------¡-----¡--
----------------------------------------------¡-----¡--
----------------------------------------------¡-----¡--
--2-------------8-------------7-------------5-¡-8-7-¡--
--0--0-0-0-0-0--6--0-0-0-0-0--5--0-0-0-0-0--3-¡-6-5-¡--
     PM.......     PM.......     PM.......

La segunda vez que toques este riff en vez de tocar lo que
pone en la zona marcada con 'x' toca esto:

--------------
--------------
--------------
--------------
--8s7s8--8-7--
--6s5s6--6-5--

2) (Al levantarse José Andrés...)

------------------------------
------------------------------
------------------------------
------------------------------
--2------8------5------8------
--0--0*--6--6*--3--3*--6--6*--
     PM     PM     PM     PM

3) (Y José Andrés)

------------------------------------
------------------------------------
------------------------------------
---------------3-------------3-3-3--
--2-2--5--2-2--1--2-2--5--2--1-1-1--
--0-0--3--0-0-----0-0--3--0---------


ACORDES DURANTE EL SOLO

1)

Tocar lo mismo que en Chorus 1

2) (¡Ohhhhhhh!)
                      (x3)
-------------------------¡--------------
-------------------------¡--------------
-------------------------¡--------------
--5--5---7-7-7---------7-¡--------------
--3--3*--5-5-5--7--7---5-¡-5---5-4-3-2--
----------------5--5*----¡-3*--3-2-1-0--
     PM            PM      PM


FINAL

1) (Y si él va en coche...)

Tocar lo mismo que en Chorus 2

2) (Es que él es todo un ligón...)

              (x2)
------------------¡---------------          
------------------¡---------------
------------------¡---------------
----------12------¡-4-5-6-5----7--
--9---8---10*--8--¡-2-3-4-3-5--5--
--7*--6*-------6*-¡---------3-----

3) (Creo que sé lo que te pasa...)

-------------------------------
-------------------------------
-------------------------------
--9-9-9-9--5-5--7-7-7------10--
--7-7-7-7--3-3--5-5-5--7----8--
-----------------------5*------
           PM........

4) (...te aguantan)

---------------------
---------------------
---------------------
---------------------
-----8-7-----5--5s7--
--0--6-5--0--3--3s5--

------------------------------------------------------------
------------------------------------------------------------


Jose Andres

José Andrés es el típico tío 
que habla de las mujeres 
como si fueran ganao, 
que sólo aspira a tener 
dinero y coños para joder 
pues por cerebro 
este pobre tiene un 'pitilín' 
¡por eso tiene karatxorra! 
¡por eso tiene karatxorra! 

Al levantarse José Andrés 
de la cama, pide café 
vociferando a su mamá 
ke tiene mutxa moral 
luego entra al water 
escupe en el lavabo 
mira al espejo 
y frunce el ceño José Andrés. 

Cuando está ante los demás 
no sabe ke actitud tomar 
por eso al entrar a un bar 
intxa el pecho y va al final 
de la barra, y con una mirada 
de desprecio, obserba 
a todos los que allí están 
¡eres mi héroe! ¡mi José Andrés! 

Y si él va en coche 
con sus colegas paseándose 
y ve alguna chica ke pasa 
por su lao, saca su puta cara 
por la ventanilla, baboseando, 
y le llama ¡guarra! 
¡qué hatxazo tienes! 
es que él es todo un ligón 
lo ke no entiendo yo es 
porqué cuando él va 
andando solo, no babosea 
a todas las chicas ke se le 
cruzan, ni porqué como un 
crío llora en su habitación 
¿tal vez como es tan duro 
no puede contar a nadie sus 
problemas? o no sabe. 

Creo que sé lo que te pasa 
es la soledad, sí, es la 
soledad, por eso desengáñate 
no eres tan duro ¡de verdad! 
más duros son los que te aguantan.
Suggest correction
Give kudos to tab author, rate the tab!
1 2 3 4 5
comments
print report bad tab
guest
You may want to rate the tab now too:
select rating
Wanna post a correction for this tab? Suggest correction