Oops, an error
Loading. Please wait.

Operación Mengele Tab

37 views 1 this week
no commentswrite comment
1 2 3 4 5
3 more votes to show rating
add to favorites
launch autoscroll
font size
0
reset
how to read this tab
guitar tuner
×
Best way to learn
"Operación Mengele"
Autoscroll
slow
fast
+/-
esc
set tempo
stop
INTRO

1)

------------------------------------------------------------
------------------------------------------------------------
-----------------------------------------------------4------
---------2-------2-------------5-------5------4-4-4--4--4-4-
--2-2-2--2--2-2--2--2---5-5-5--5--5-5--5--5---2-2-2-----2-2-
--0-0-0-----0-0-----0---3-3-3-----3-3-----3-----------------
  PM...     PM.     PM  PM...     PM.     PM  PM...     PM. 

------------------------------
------------------------------
--4-------------7-------7-----
--4--4---7-7-7--7--7-7--7--7--
-----2---5-5-5-----5-5-----5--
------------------------------
     PM  PM...     PM.     PM

2)

------------------------------------------------------------
------------------------------------------------------------
--------------9-------9-----------------------------------4-
-------9-9-9--9--9-9--9--9----------5-------5------4-4-4--4-
--2s7--7-7-7-----7-7-----7---5-5-5--5--5-5--5--5---2-2-2----
-----------------------------3-3-3-----3-3-----3------------
       PM...     PM.     PM  PM...     PM.     PM. PM...    

-----------------------------------
-----------------------------------
-------4-------------7-------7-----
--4-4--4--4---7-7-7--7--7-7--7--7--
--2-2-----2---5-5-5-----5-5-----5--
-----------------------------------
  PM.     PM  PM...     PM.     PM

3)

------------------------------------------------------------
------------------------------------------------------------
-----------4-4-4---------------------------4-4-4------------
-----------2-2-2-----------5-5-5--4-4-4-4--4-4-4--7-7-7-7---
--2-2-2-2---------5-5-5-5--5-5-5--2-2-2-2---------5-5-5-5---
--0-0-0-0---------3-3-3-3-----------------------------------

---------
---------
--7-7-7--
--7-7-7--
---------
---------

En un momento dado de esta parte de la canción aparece este 
punteo:

----------------------------------------
--5555-5555--8888-8888------------------
----------------------------------------
----------------------------------------
----------------------------------------
----------------------------------------


VERSO (No paran de criticar...)

Tocar lo mismo que en Intro 1


CHORUS (Solemos fabricar ...)

Tocar lo mismo que en Intro 3


POST-CHORUS (¡Te hemos pillao!)

-------------------------
-------------------------
--7-7--7-7--7-7--7-9-11--
--7-7--7-7--7-7--7-9-11--
--5-5--5-5--5-5--5-7-9---
-------------------------


PRE-FINAL

------------------------------------------
------------------------------------------
--9-9--4-4--9-9--4-4--7-7-8---------------
--9-9--4-4--9-9--4-4--7-7-8---------------
--7-7--2-2--7-7--2-2--5-5-6---------------
------------------------------------------


FINAL

1) (Ya que no está bien ...)
                  xxxxxxxxx
-----------------¡---------¡--
-----------------¡---------¡--
--9-------4------¡---------¡--
--9---5---4---7--¡-5-5-5-5-¡--
--7*--5---2*--7--¡-5-5-5-5-¡--
------3*------5*-¡-3-3-3-3-¡--

La segunda vez que toques este riff en vez de tocar lo que
pone en la zona marcada con 'x' toca esto:

---------
---------
--7-7-7--
--7-7-7--
--5-5-5--
---------

2) (... sueldos sociales)

Guitarra 1
------------------------------------------------------------
------------------------------------------------------------
--9-9-------4-4--7-7-7--9-9-------4-4--7-7--7-7--7-7--7-7-8-
--9-9--5-5--4-4--7-7-7--9-9--5-5--4-4--7-7--7-7--7-7--7-7-8-
--7-7--5-5--2-2--5-5-5--7-7--5-5--2-2--5-5--5-5--5-5--5-5-6-
-------3-3-------------------3-3----------------------------

---
---
-9-
-9-
-7-
---

Guitarra 2
------------------------------------------
--555-3h5-555-(x3)-555-777----------------
------------------------------------------
------------------------------------------
------------------------------------------
------------------------------------------

------------------------------------------------------------
------------------------------------------------------------


Operacion mengele

No paran de criticar, de si estarán
bien o mal, metodos que usamos
para experimentar efectos
secundarios, reacciones y demás,
que causan los productos que
solemos fabricar. Todo esto es
para que usted viva mejor.
Pero encima nuestro, esten esas
malditas organizaciones
preocupadas por que no se les
cause dolor a los animalitos.
Hemos encontrao una buena
solución respaldada por el estado.
Ya que no está bien, no lo haremos
más con los animales,
ahora vamos a usar un material
mejor, pobres y subnormales,
los resultados serán fiables 100%,
y ahorraremos mogollón en
sueldos sociales.
Suggest correction
Give kudos to tab author, rate the tab!
1 2 3 4 5
comments
print report bad tab
guest
You may want to rate the tab now too:
select rating
Wanna post a correction for this tab? Suggest correction