Oops, an error
Loading. Please wait.

Sueños Rotos Tab

29 views 1 this week
no commentswrite comment
1 2 3 4 5
3 more votes to show rating
add to favorites
×
Save as Personal and add changes to this tab that will be seen only by you. Learn more ›
×
You can save this tab as Personal to edit and correct it or add notes. All changes will be seen only by you. Learn more »
save as personal
new!
launch autoscroll
font size
0
reset
how to read this tab
guitar tuner
Autoscroll
slow
fast
+/-
esc
set tempo
stop
INTRO

--------------------
--------------------
--------------------
--3-3-3--5--3-3--5--
--3-3-3--5--3-3--5--
--3-3-3--5--3-3--5--
                                        xxxxxxxxxxxxxx
---------------------------------------¡--------------¡--
---------------------------------------¡--------------¡--
---------------------------------------¡--------------¡--
---------------------------------------¡--------------¡--
--0-0--3p0--0-0-0--3p0--3--0-0--3p0--0-¡-3-3-3--5-3-5-¡--
--0-0--3p0--0-0-0--3p0--3--0-0--3p0--0-¡-3-3-3--5-3-5-¡--

La segunda vez que toques este riff en vez de tocar lo que
pone en la zona marcada con 'x' toca esto:

--------------------
--------------------
--------------------
--------------------
--------------------
--3-3-3-(5)--3-3-5--

Y en un momento dado una segunda guitarra toca esto cuando
la guitarra 1 toca la zona marcada con 'x' en el riff:

----------------------------
----------------------------
----------------------------
--(3)-(3)-(3)--(5)-(3)-(5)--
----------------------------
----------------------------


VERSO

1) (Un oscuro desván repleto de sueños rotos...)

Tocar lo mismo que en la Intro pero haciendo palm muted

2) (...es una olla a presión)

----------
----------
----------
----------
----------
--0s12s0--

------------------------------------------------------------
------------------------------------------------------------
------------------------------------------------------------
---------10-------5---------5s7-----------------------------
--0-0-0---8--0-0--3--0-0-0--3s5--0-0--5s7--10--0--5s6--3--0-
--0-0-0------0-0-----0-0-0-------0-0--5s7--10--0--5s6--3--0-
  PM...      PM.     PM...       PM.           PM         PM

------------------------------------------------------------
------------------------------------------------------------
------------------------------------------------------------
-----------------10-------5---------5s7---------------------
--3-5-6---0-0-0---8--0-0--3--0-0-0--3s5--0-0--5s7--10--5s6--
--3-5-6---0-0-0------0-0-----0-0-0-------0-0--5s7--10--5s6--
          PM...      PM.     PM...       PM.

------------
------------
------------
------------
-0--5s6s5s3-
-0--5s6s5s3-


CHORUS

1) (Ruina y desolación invaden...)

Toca esto tres veces
----------------------¡-------------------
----------------------¡-------------------
----------------------¡-------------------
----------------------¡-------------------
-----------0--5s6s5s3-¡-------------------
--0-0-0-0--0--5s6s5s3-¡-0-0-0-0--6-6-6-6--

2) (...pero no estás sólo en la ruina)

------------------------------
------------------------------
------------------------------
------------------------------
------3-0--5-0------3s5--6-5--
--0*--3-0--5-0--0*--3s5--6-5--


ACORDES DURANTE EL SOLO

--------
--------
--------
--3--5--
--3--5--
--3--5--

------------------------------------------------------------
------------------------------------------------------------
------------------------------------------------------------
------------------------------------------------------------
--9-----------12s9-----------14s9-----------9-7--9-9--7-----
--9--9-9-9-9--12s9--9-9-9-9--14s9--9-9-9-9--9-7--9-9--7--7-7

--------------------------------
--------------------------------
--------------------------------
--------7------------------7----
------7-5--7-7-----------7-5--7-
-7-7--7----7-7--7-7-7-7--7----7-

------------------------------------------------------------
------------------------------------------------------------


Sueños rotos

Un oscuro desván repleto de sueños rotos
rotos por un presente demasiado vulgar
la dura realidad golpea la mente
mientras caminas por las calles en las que aprendiste a andar
ennegrecidas y estrechas como el barrio entero
la sirena señala el cambio de turno
pero ya no hay turno para tí
tampoco pa tú viejo
también lo han puesto en la calle.

Reconversión, desolación, salvaje desolación
sigues andando mirando a tu alrededor
escupes al suelo con rabia, te comes las entrañas
ke opciones te dan, constante explotación
inseguridad, tu cabeza es una olla a presión.

¡Paro, paro! Te sientes fracasado
¡paro, paro! No tienes 30 años y cada vez te hundes más
cada vez más moskeado, cada vez más moskeado
te asaltan las dudas
de la angustia no puedes huir
despiertas por la noche apesadumbrado por el porvenir
y pegar ojo pensando en solucionar
problemas que no parecen tener un feliz final
¡no tendrán final feliz!

Rutina y desolación invaden tutriste realidad
pero no estás sólo en la ruina
miles de personas se asquean al pensar
no hay oportunidades
no hay salida
se quieren suicidar en el fondo del desván
junto a sus sueños rotos y su presente sin futuro.
Suggest correction
Give kudos to tab author, rate the tab!
1 2 3 4 5
comments
print report bad tab
guest
Wanna post a correction for this tab? Suggest correction