Oops, an error
Loading. Please wait.

Ya Güelen Tab

version 1
version 1

Whole song

17 views 1 this week
no commentswrite comment
1 2 3 4 5
3 more votes to show rating
add to favorites
launch autoscroll
font size
0
reset
how to read this tab
guitar tuner
×
Best way to learn
"Ya Güelen"
Autoscroll
slow
fast
+/-
esc
set tempo
stop
+ Tabulados de made in spain!                   +
+ [                        +
+++++++++++++++++++++++++++++++++++++++++++++++++

Intro:

 e |---------------------|
 B |---------------------|
 G |----7----9----5*-----|
 D |----7----9----5*-----|
 A |----5----7----3*-----|
 E |---------------------|

 * :- 5 veces


Verso:

 e |-------------------------------------------------------|
 B |-------------------------------------------------------|
 G |---5*----------------------5*--------------7--9---5*---|TOCAR
 D |---5*----5*----7*----3*----5*----5*----7---7--9---5*---|  X2
 A |---3*----5*----7*----3*----3*----5*----7---5--7---3*---|
 E |---------3*----5*----1*----------3*----5---------------|

 * :- 7 Veces cada acorde menos el último que hay que tocarlo 5 veces


Luego:

 e |----8*---------------8*-----------10--12--8*----|
 B |--------8*--10*--6*------8*--10*----------------|
 G |------------------------------------------------|
 D |------------------------------------------------|
 A |------------------------------------------------|
 E |------------------------------------------------|

 * :- 7 Veces cada nota menos la última que hay que tocarla 5 veces

 e |-------------------------------------------------------|
 B |-------------------------------------------------------|
 G |---5*----------------------5*--------------7--9---5*---|TOCAR
 D |---5*----5*----7*----3*----5*----5*----7---7--9---5*---|  X2
 A |---3*----5*----7*----3*----3*----5*----7---5--7---3*---|
 E |---------3*----5*----1*----------3*----5---------------|


Luego:

 e |-------------------------|
 B |-------------------------|
 G |----5*--------8*---------|TOCAR
 D |---------5*--------8*----| X3
 A |-------------------------|
 E |-------------------------|

 * :- 8 Veces cada nota

 e |-----------------------|
 B |-----------------------|
 G |---5*--------8*---8*---| TOCAR UNAS CUANTAS VECES
 D |---5*---5*---8*---8*---|
 A |---3*---5*---6*---6*---|
 E |--------3*-------------|

 * :- 8 Veces cada acorde


Luego:

 e |-------------------------------------------------------|
 B |-------------------------------------------------------|
 G |---5*----------------------5*--------------7--9---5*---|
 D |---5*----5*----7*----3*----5*----5*----7---7--9---5*---|
 A |---3*----5*----7*----3*----3*----5*----7---5--7---3*---|
 E |---------3*----5*----1*----------3*----5---------------|
Suggest correction
Give kudos to tab author, rate the tab!
1 2 3 4 5
comments
print report bad tab
guest
You may want to rate the tab now too:
select rating
Wanna post a correction for this tab? Suggest correction