Oops, an error
Loading. Please wait.

Ya Güelen Tab

version 2
version 2

Whole song

14 views 1 this week
no commentswrite comment
1 2 3 4 5
3 more votes to show rating
add to favorites
×
Save as Personal and add changes to this tab that will be seen only by you. Learn more ›
×
You can save this tab as Personal to edit and correct it or add notes. All changes will be seen only by you. Learn more »
save as personal
new!
launch autoscroll
font size
0
reset
how to read this tab
guitar tuner
Autoscroll
slow
fast
+/-
esc
set tempo
stop
NOTACION

*= tocar ocho veces esa nota o acorde

------------------------------------------------------------
------------------------------------------------------------

AFINACION

Normal (standar)

------------------------------------------------------------
------------------------------------------------------------


INTRO

-----------------
-----------------
--7--9--5-5-5-5--
--7--9--5-5-5-5--
--5--7--3-3-3-3--
-----------------


VERSO (Hay que ver lo...)

-----------------------------------------------------------
-----------------------------------------------------------
--5*----------------------5*---------------7--9---5-5-5-5--
--5*----5*----7*----3*----5*----5*--3-3-3--7--9---5-5-5-5--
--3*----5*----7*----3*----3*----5*--3-3-3--5--7---3-3-3-3--
--------3*----5*----1*----------3*--1-1-1------------------

En un momento dado una segunda guitarra hace este solo:

----8*---------------8*----------------10--12--8-8-8-8-8
--------8*--10*--6*------8*-----------------------------
-----------------------------10-10-10-------------------
--------------------------------------------------------
--------------------------------------------------------
--------------------------------------------------------


CHORUS

1) (Me ha parao otra vez)

---------------------------------
---------------------------------
---5*--0*--8*--3-3-3-3--0-0-0-0--
---------------------------------
---------------------------------
---------------------------------

2) (Oh!)

--------------------------------
--------------------------------
--5-------8---------------------
--5---5---8---8-8-8-8--5-5-5-5--
--3*--5---6*--8-8-8-8--5-5-5-5--
------3*------6-6-6-6--3-3-3-3--

3) (Qué más podemos pedir...)

Tocar lo mismo que en Chorus 2


FINAL (Y así pues que todo va bien...)

Tocar lo mismo que en Verso

------------------------------------------------------------
------------------------------------------------------------


Ya güelen

Hay que ver ké divertido es vivir 
rodeados de guardia civil 
lo bonito que es pasear por la 
ciudad, controlados por un municipal 
es algo espectacular cuando ves al 
'beltza' matxakar, excitante ir a un 
bar, y ke te sake a ostias la 'nacional' 
¡ay qué bien! ¡ké alegría! 
me ha parao la policía 
como casi todos los días 

¿Qué más podemos pedir? 
si ellos nos hacen vivir 
les debemos esta paz 
y un monton de cosas más. 

Asi pues, que todo va bien 
la seguridad 100 x 100 
no hace falta nada más 
para vivir en un mundo en 'paz'.
Suggest correction
Give kudos to tab author, rate the tab!
1 2 3 4 5
comments
print report bad tab
guest
Wanna post a correction for this tab? Suggest correction