Oops, an error
Loading. Please wait.

Estás Acá Chords

version 2
version 2

Whole song

22 views 3 this week
no commentswrite comment
1 2 3 4 5
3 more votes to show rating
add to favorites
launch autoscroll
font size
0
reset
transpose
0
reset
simplify chords
display chords
guitar tuner
Autoscroll
slow
fast
+/-
esc
set tempo
stop
Help us to improve Ultimate-Guitar.com Take our survey!
×
A5           F#5                 G5  E5
  Sólo esta vez, se extiende la vida,  si no lo sabes
A5           F#5          G5   E5
  sólo esta vez, juega tu alma,  si no lo sabés
A5           F#5          G5    E5
  sólo esta vez, puedo mirarte nena
A5           F#5            G5  E5
  sólo esta vez, sólo esta vez

   A      D7           D7sus4   Dadd9            Bbmaj9
Estás acá o estás al pie de alguien muy poderoso
     Cm9            D         D7sus4  D
que come tu energía (lo veo en tus   ojos nena)
   A      D7           D7sus4   Dadd9            Bbmaj9
Estás acá o estás al pie de alguien muy poderoso
     Cm9                D        D7sus4  D
que cambiará tus días con toda esa polí---tica

Sólo esta vez, se extiende la vida, si no lo sabés
sólo esta vez, sólo esta vez...
es que sólo esta vez puedo mirarte,
sólo esta vez, puedo tocarte nena

estás acá o estás al pie de alguien muy poderoso
que cambiará tus días con toda esa política
estás acá o estás al pie de alguien muy poderoso
te come la energía (lo veo en tus ojos nena)

Acordes usados:
e|-------5---------
b|-------5----------
g|-------6---------              A
d|-------7----------
a|-------7----------
E|-------5-----------

e|-------5---------
b|-------7----------
g|-------5---------              D7
d|-------7----------
a|-------5----------
E|-----------------

e|-------5---------
b|-------8----------
g|-------5---------             D7sus4
d|-------7----------
a|-------5----------
E|-------X----------

e|-------5---------
b|-------5----------
g|-------7---------              Dadd9
d|-------7----------
a|-------5----------
E|-------X----------

e|-------X---------
b|-------X----------
g|-------5---------             Bbmaj9
d|-------7----------
a|-------8----------
E|-------6----------

e|-------X---------
b|-------X----------
g|-------5---------              Cm9
d|-------8----------
a|-------6----------
E|-------8----------
Suggest correction
Give kudos to tab author, rate the tab!
1 2 3 4 5
comments
print report bad tab
guest
You may want to rate the tab now too:
select rating
Wanna post a correction for this tab? Suggest correction