Oops, an error
Loading. Please wait.
72 views 1 this week
no commentswrite comment
1 2 3 4 5
3 more votes to show rating
add to favorites
launch autoscroll
font size
0
reset
how to read this tab
guitar tuner
×
Best way to learn
"Mi Sueño De Hoy"
Autoscroll
slow
fast
+/-
esc
set tempo
stop
Hola famili de cusco - peru y mundo, si alguno de ustedes
conoce a Claudia Nuñes Florez, diganle que quisiera disculparme con ella.
Ella es de cusco-peru, y estudia arqueologia en la universidad San antonio abad del cusco,
POr fa, si alguien se lo puede decir, diganselo.


AQUÍ LES VA EL SOLO DE GUITARRA QUE HACE LUIS EN SU MTV UNPLUGGED, 
EN ?MI SUEÑO DE HOY?, CREO QUE ESTA BUENO, ASI QUE PRACTIQUENLO.

E------------------------------------------------------------|
B----------------------------------------------6/8-8---------|
G------------5---5-7-7/9-5---------------------------9-------|
D--------7-8---7---------------------------------------9b----|
A---7-8----------------------9h10h9--7h9h10h9----------------|
E------------------------------------------------------------|

E-------------------------------------|-----------------------------------------|
B-------------------------------------|-----------------------------------------|
G---------------------9-10-10-10-10---|--10-10-10-10-10-10/9-9-9-9-9/7-7-7-7/9--|
D---9h10h9--7h9h10h9------------------|-----------------------------------------|
A-------------------------------------|-----------------------------------------|
E-------------------------------------|-----------------------------------------|

E-----------------------------------------------------------------|
B-----10-12-13-13-13-12-10-13-12-10-13-12-10-13-12-10-12/13-------|
G---9-------------------------------------------------------9-----|
D-----------------------------------------------------------------|
A-----------------------------------------------------------------|
E-----------------------------------------------------------------|

E---------------------------------------------|
B-----10-12-13-13-13-12/13-12-10-10/12-10-----|
G---9-------------------------------------9---|
D---------------------------------------------|
A---------------------------------------------|
E---------------------------------------------|

E------------------------------------------|
B------------------------------------------|
G------------7/10-10-10/7-7\5-5\4-4\2-2-2--|
D-------7-10-------------------------------|
A---7-8------------------------------------|
E------------------------------------------|

E----------------------------------------|
B------------1---1---1---1-3-3/5-3h1-----|
G-2-4-5--2-4---2---2---2-------------4---|
D----------------------------------------|
A----------------------------------------|
E----------------------------------------|

b=levanta la cuerda para arriba.
/=deslizar para abajo.
\=deslizar para arriba.
h=hammer o ligadura.

Bueno amigos espero que me hagan el gran
favor de ayudarme, y espero este solo
de Luis les guste mucho.
Suggest correction
Give kudos to tab author, rate the tab!
1 2 3 4 5
comments
print report bad tab
guest
You may want to rate the tab now too:
select rating
Wanna post a correction for this tab? Suggest correction