Oops, an error
Loading. Please wait.

Tu Corazón Por Mí Bass Tab

34 views 1 this week
no commentswrite comment
1 2 3 4 5
3 more votes to show rating
add to favorites
launch autoscroll
font size
0
reset
guitar tuner
Autoscroll
slow
fast
+/-
esc
set tempo
stop
Help us to improve Ultimate-Guitar.com Take our survey!
×
Este tema lo toca con bajo de 6 cuerdas Marcelo Torres. La única parte
que si o si necesitaría 6 cuerdas para que suene igual es la parte difícil
del tema cuando el Flaco se pone a solear.
En esa parte entonces le puse una interpretación mía que suena bastante bien.
El resto es fácil. Hay pequeñas variaciones,las cuales puse todas.

(este riff hasta el siguiente cambio lo hace 12 vueltas)
G|---------------------------------------------------|
D|---------------------------------------------------|
A|-2-2-3-3-3-5-5--5--5--5-5--------------------------|
E|--------------------------2-2-3-3-3-5-5--5--5--5-5-|

1:28
G|----------------------------------------------------------|
D|------------------------------7---------------------------|
A|-7-7-8-8-8-10-10--10--10-7-10-----------------------------|
E|--------------------------------0-0-1-1-1-3-3--3--3-0-3-5-|

G|----------------------------------------------------------|
D|------------------------------7---------------------------|
A|-7-7-8-8-8-10-10--10--10-7-10-----------------------------|
E|--------------------------------0-0-1-1-1-3-3--3--3-3-3-5-|


Esta es la unica parte mas difí ligado(h) de las notas Re
y La dura entre h y h. O sea queda sonando entre esas marcas.

1:41                   (4 vueltas)
G|-------------------7--7-5----------------5-7-7/8-7-5---|
D|-------------------7--7-5----------------5-7-7/8-7-5---|
A|-2-2-3-3-3-5-5--5h----h-------------0-0h-----------h---|
E|--------------------------2-2-3-3-3--------------------|

                 (6 vueltas)
G|---------------------------------------------------|------------
D|---------------------------------------------------|------------
A|-2-2-3-3-3-5-5--5--5--5-5--------------------------|-3--0-3--0--
E|--------------------------2-2-3-3-3-5-5--5--5--5-5-|------------

2:47
G|----------------------------------------------------------|
D|------------------------------7----------------5--5-5-5---|
A|-7-7-8-8-8-10-10--10--10-7-10---------------------------0-|
E|--------------------------------0-0-1-1-1-3-3-------------|

G|----------------------------------------------------------|
D|-------------------------10--7-----------------5--5-5-5---|
A|-7-7-8-8-8-10-10--10--10--------------------------------0-|
E|-------------------------------0-0-1-1-1-3-3--------------|

3:00                   (4 vueltas)
G|-------------------7--7-5----------------5-7-7/8-7-5---|
D|-------------------7--7-5----------------5-7-7/8-7-5---|
A|-2-2-3-3-3-5-5--5h----h-------------0-0h-----------h---|
E|--------------------------2-2-3-3-3--------------------|


El ligado(h) de las notas dura entre h y h.
O sea queda sonando entre esas marcas

3:23                (4 vueltas)
G|--------------------7------------------------------|
D|--------------------7------------------------7-----|
A|-2-2-3-3-3-5-5--5h-----h5--------------------7-----|
E|--------------------------2-2-3-3-3-5-5--5h-----h5-|

Final
G|----------7h9-7------------------------------------------------|
D|-----7-10-------10-------7h9-7---------------------------------|
A|-(10)---------------7-10-------10--0-3-3--0-3--0-3--0-3--0-----|
E|---------------------------------------------------------------|

    /: slide up (?arrastrar? hacia adelante)
    h: hammer on (ligado)
  (x): nota opcional.

Tu corazon por mi (Luis Alberto Spinetta)

Dame nena, tu corazon por mi, dame todo, tu corazon por mi,
dame todo, todo lo que vi, al menos algo, dame una ilusion
dame todo, tu corazon por mi

Tan solo escucho: toma veni toma,
tan solo escucho, nena: toma veni toma,
dame todo, al menos la ilusion, dame nena, tu corazon por mi

Y no lo dudo un instante, yo se que te guste jugar asi
Y no lo dudo un instante, yo se que te guste jugar asi

Dame nena, tu corazon por mi, dame todo, todo lo que vi
al menos algo, oh oh oh oh oh oh
dame todo, tu corazon por mi

Un mundo enfermo que cae, no se como puedes quedarte alli
un mundo enfermo que cae, no se como puedes quedarte alli?

Dame nena, tu corazon por mi, dame todo, todo lo que vi
al menos algo, oh oh oh oh oh oh
dame nena, tu corazon por mi


Mientras sus temas se sigan tocando y escuchando el Carpo y el
Flaco jamás morirán, vivirán eternamente en la memoria de todos...
e-mail: zarathustra4321@
Suggest correction
Give kudos to tab author, rate the tab!
1 2 3 4 5
comments
print report bad tab
guest
You may want to rate the tab now too:
select rating
Wanna post a correction for this tab? Suggest correction