Oops, an error
Loading. Please wait.

Miénteme En Serio Chords

4 views 1 this week
no commentswrite comment
1 2 3 4 5
3 more votes to show rating
add to favorites
launch autoscroll
font size
0
reset
transpose
0
reset
simplify chords
display chords
guitar tuner
×
Best way to learn
"Miénteme En Serio"
Autoscroll
slow
fast
+/-
esc
set tempo
stop
Esta es la cancion descartada del nuevo disco de los Spunkto.
Es una muy buena, asi q espero q les guste.
Si gustan le pueden bajar 1/2 tono


Intro:
|-6----6-5-------5-3----3-1----------------------------------|
|------------------------------------------------------------|
|---3------3-5-3-----3-------3-1-0---------------------------|
|------------------------------------------------------------|
|------------------------------------------------------------|
|------------------------------------------------------------|

A5#         F5
 AQUI estoy congelándome
G5                      D5#
recuerdos y frases que yo nunca olvidare
A5#              F5
te extraño y no sé como sentirme bien
   G5                   D5#
me pesan los segundos que contigo yo pase
  A5#                     F5
y dices que estas bien que ya me has olvidado
  G5                       D5#
y yo te eh perdonado todo el daño que has causado.

A5#         F5
AQUI estoy congelándome
   G5                   D5#~
me pesan los segundos que contigo no pase.
(Aquí viene un cambio de acordes q no me acuerdo y no tengo audio T_T)

(Aquí el ritmo es un poco mas rápido)
A5#                       F5
Sabes que no miento cuando digo que te extraño
      G5                     D5#
Si no estas conmigo todo me da igual
         A5#                   F5
Si es de noche, si es de día, si tal vez algún día
  G5                     D5#
podrías darme otra oportunidad.

  A5#   F5      G5    D5#
|-6----6-5-------5-3----3-1----------------------------------|
|------------------------------------------------------------|
|---3------3-5-3-----3-------3-1-0---------------------------|
|------------------------------------------------------------|
|------------------------------------------------------------|
|------------------------------------------------------------|


Luego repiten todos los acordes y en la parte final va una variaciòn
q me da flojera colgarla, ademàs ya se ganaron con toda la canciòn.
Un abrazo.
PD: La cancion va dedicada para Anggela, se lo gano con honores U_U`

=O)
Suggest correction
Give kudos to tab author, rate the tab!
1 2 3 4 5
comments
print report bad tab
guest
You may want to rate the tab now too:
select rating
Wanna post a correction for this tab? Suggest correction