Oops, an error
Loading. Please wait.

Yo Maté A Robert Smith Tab

37 views 1 this week
no commentswrite comment
1 2 3 4 5
3 more votes to show rating
add to favorites
launch autoscroll
font size
0
reset
how to read this tab
guitar tuner
×
Best way to learn
"Yo Maté A Robert Smith"
Autoscroll
slow
fast
+/-
esc
set tempo
stop
esta cancion es de los remoras pero yo la he escuchado con

pues la cancion empieza con el bajo

e--------------
B--------------
G--------------
D--------------
A--------------
E-0-3-2---0-3-2

e--7-7--5-4-5-0---5-4-5-0
B--7-7-5------0--5------0
G--7-7--------0---------0
D------------------------
A------------------------
E------------------------

e-5-5-3-5-5-3-5-5-3-5-3---3
B-----------------------5--
G--------------------------
D--------------------------
A--------------------------
E--------------------------

e-5-5-3-5-5-3-5-5-3-5-3---3----------0
B-----------------------5---5--------0
G-----------------------------5-4-5--0
D-------------------------------------
A-------------------------------------
E-------------------------------------

e-7-8-7-8-10-8-7--------7-7-
B-----------------8-7-8-7-7-
G-----------------------7-7-
D---------------------------
A---------------------------
E---------------------------

e-7-8-7-8-10-8-7--------7-1-1-1-1-1-1-1-1
B-----------------8-7-8-7----------------
G-----------------------7----------------
D----------------------------------------
A----------------------------------------
E----------------------------------------


e-12-12-10-12-12-10-12-12-10-12-10---10-     e-7-
B----------------------------------12---     B-7-
G--------------------------------------- X4  G-7- X2
D---------------------------------------     D---
A---------------------------------------     A---
E---------------------------------------     E---

e-12-12-10-12-12-10-12-12-10-12-10---10-     e-7-8-7-8-10-8-7-------7-7-
B----------------------------------12---     B----------------8-7-8-7-7-
G--------------------------------------- X2  G----------------------7-7-
D---------------------------------------     D--------------------------
A---------------------------------------     A--------------------------
E---------------------------------------     E--------------------------


e-7-8-7-8-10-8-7--------7-1-1-1-1-1-1-1-1
B-----------------8-7-8-7----------------
G-----------------------7----------------
D----------------------------------------
A----------------------------------------
E----------------------------------------

Y SE REPITE 2 VECES TODO MENOS LO DEL TRASTE 12 Y 10
SALE SURFEROS CUALQUIER PROBLEMA ME MANADAN A LA CHINGADA EN MI CORREO
systemofadown_25@
Suggest correction
Give kudos to tab author, rate the tab!
1 2 3 4 5
comments
print report bad tab
guest
You may want to rate the tab now too:
select rating
Wanna post a correction for this tab? Suggest correction