Oops, an error
Loading. Please wait.

Señor Trepador Tab

14 views 1 this week
no commentswrite comment
1 2 3 4 5
3 more votes to show rating
add to favorites
×
Save as Personal and add changes to this tab that will be seen only by you. Learn more ›
×
You can save this tab as Personal to edit and correct it or add notes. All changes will be seen only by you. Learn more »
save as personal
new!
launch autoscroll
font size
0
reset
how to read this tab
guitar tuner
Autoscroll
slow
fast
+/-
esc
set tempo
stop
Wola!! Como nadie la pone, creo que voy a ser yo el que ponga la canción
en lacuerda junto a otras cuántas... Como siempre por no cambiar...
Dudas, sugerencias o lo que se a mi dire:
manu15paramo@


C#               A                   E
Me tracé un buen plan pa quedarme contigo
             B                    C#
Y volverte a mirar, pero me salió mal
        A                      E             B
Y ahora me he arrepentío de no haber pensado más

C#               A                    E
Y te huelo en tu foto que tengo en mi alma
             B                         C#
Que no es de mentira y que no es de verdad
               A                  E                     E
Pero que si la tiro te enfadas conmigo y me empiezo a liar


e |------------------------4----------|
B |-2-4--4/5--4--2---2-4-5----4-5--2--|
G |-----------------------------------|
D |-----------------------------------|
A |-----------------------------------|
E |-----------------------------------|

C#            A
Y de tanto saltarme a tu cuarto
  E                      B                 C#
Subiendo a las ramas que tienes de tu calentón
                A                E               B   C#
cada vez que me ve tu familia me dice Señor Trepador

C#                A                 E
Y te sigo en la oscura mañana de un día al revés
       B                  C#
Por un sol que no quiso salir
                   A                   E                    B
Porque estaba mu a gusto en su nube de mierda y prefirió dormir

E             B                C#
Y vuelvo a dormirme llorando sonatas
          A                   E
Con la dulzura de un bollo de nata
            B                 C#
Y la escandalera de ruidos de lata

E                   B              C#
Y sueño gritando tu nombre en la escala
       A                   E
De sol mayor, con poca esperanza
              B                   C#            A
Diciéndole al tiempo que no tengo cuerpo para seguir


e |------------------------4----------|
B |-2-4--4/5--4--2---2-4-5----4-5--2--|
G |-----------------------------------|
D |-----------------------------------|
A |-----------------------------------|
E |-----------------------------------|

e |---2--2/4-4-4-4-5-4-2------2-2-2-2--4-2---|-----------|
B |-5---------------------4-5--------------5-|-2-4--4/5--|
G |------------------------------------------|-----------|
D |------------------------------------------|-----------|
A |------------------------------------------|-----------|
E |------------------------------------------|-----------|

C#              A               E
Y un beso que empaña a una luna llena
           B                 C#
Una puta barata sin ganas de juerga
            A                  E      B
Distintas palabras, sabrosas miradas

C#              A                   E
Y un corazón de hielo en un pecho ardiendo
            B                     C#
Se escapa corriendo aullando a la luna
              A                 E      B
Con la sombra oscura vestida de cuero

E             B                C#
Y vuelvo a dormirme llorando sonatas
          A                   E
Con la dulzura de un bollo de nata
            B                 C#
Y la escandalera de ruidos de lata

E                   B              C#
Y sueño gritando tu nombre en la escala
       A                   E
De sol mayor, con poca esperanza
              B                   C#            A
Diciéndole al tiempo que no tengo cuerpo para seguir

e |------------------------4----------|
B |-2-4--4/5--4--2---2-4-5----4-5--2--|
G |-----------------------------------|
D |-----------------------------------|
A |-----------------------------------|
E |-----------------------------------|

e |---2--2/4-4-4-4-5-4-2------2-2-2-2--4-2---|
B |-5---------------------4-5--------------5-|
G |------------------------------------------|
D |------------------------------------------|
A |------------------------------------------|
E |------------------------------------------|

    Nana  na  na na  nananana nana na
e |------------------------4----------|
B |-2-4--4/5--4--2---2-4-5----4-5--2--|
G |-----------------------------------|
D |-----------------------------------|
A |-----------------------------------|
E |-----------------------------------|

    nana  na nananannana  nananananana nanana  nanana
e |---2--2/4-4-4-4-5-4-2------2-2-2-2--4-2---|--------|
B |-5---------------------4-5--------------5-|-2-0-2--|
G |------------------------------------------|--------|
D |------------------------------------------|--------|
A |------------------------------------------|--------|
E |------------------------------------------|--------|


e |----2--4--5--7--9--|
B |-5-----------------|
G |-------------------|
D |-------------------|
A |-------------------|
E |-------------------|

    Nana  na  na na  nananana nana na
e |------------------------7----------|
B |-5-7--7/8--7--5---5-7-8----7-8--5--|
G |-----------------------------------|
D |-----------------------------------|
A |-----------------------------------|
E |-----------------------------------|

    nana  na nananannana  nananananana nanana
e |---5--5/7-7-7-7-8-7-5------5-5-5-5--7-5---|
B |-8---------------------7-8--------------8-|
G |------------------------------------------|
D |------------------------------------------|
A |------------------------------------------|
E |------------------------------------------|

    Nana  na  na na  nananana nana na
e |------------------------7----------|
B |-5-7--7/8--7--5---5-7-8----7-8--5--|
G |-----------------------------------|
D |-----------------------------------|
A |-----------------------------------|
E |-----------------------------------|

    nana  na nananannana  nananananana nanana
e |---5--5/7-7-7-7-8-7-5------5-5-5-5--7-5---|
B |-8---------------------7-8--------------8-|
G |------------------------------------------|
D |------------------------------------------|
A |------------------------------------------|
E |------------------------------------------|

     E     B       C#        A
Nana na na na nana nana nana na

Ya está!!! La canción está en quintas excepto el final... Para el que
no sepa las quintas, aquí las apunto:
  B       C#        A        E
--x--    --x--    --x--    --x--
--x--    --x--    --x--    --x--
--4--    --6--    --x--    --9--
--4--    --6--    --7--    --9--
--2--    --4--    --7--    --7--
--x--    --x--    --5--    --x--
Suggest correction
Give kudos to tab author, rate the tab!
1 2 3 4 5
comments
print report bad tab
guest
Wanna post a correction for this tab? Suggest correction