Oops, an error
Loading. Please wait.

Feliz En Tu Día Bass Tab

137 views 1 this week
no commentswrite comment
1 2 3 4 5
3 more votes to show rating
add to favorites
launch autoscroll
font size
0
reset
guitar tuner
×
Best way to learn
"Feliz En Tu Día"
Autoscroll
slow
fast
+/-
esc
set tempo
stop
Abajo dejo la estructura de la canción,
para aclarar qué parte hay que tocar. Saludos!

Intro/Estrofa
G-----------------------10-12------------
D------------------10-12-----------------
A----------------------------------------
E---3---4-0-3---------------------2-3-5--

Interludio
G--------------
D--------------
A--------------
E---3----4-3--

Estribillo
G---------------------------------
D---------------------------7-5---
A-6---4-6-4-6~---------5---5---5~-
E---------------------------------

Puente/Final
G-----------------------------------------------------------------
D-----------------------------------------------------------------
A---------------------------------6-6-6-6-6-6-6-6-6-6-6-6-6-6-6-6-
E---3---4-3-3---4-3-3---4-3-3---4---------------------------------

Intro
Estrofa
Interludio
Estrofa
Interludio
Estrofa
Estribillo
Estrofa
Puente
Interludio
Estrofa
Estribillo
Final
Suggest correction
Give kudos to tab author, rate the tab!
1 2 3 4 5
comments
print report bad tab
guest
You may want to rate the tab now too:
select rating
Wanna post a correction for this tab? Suggest correction