Oops, an error
Loading. Please wait.

Habla Por Mi Señor Tab

64 views 1 this week
no commentswrite comment
1 2 3 4 5
3 more votes to show rating
add to favorites
launch autoscroll
font size
0
reset
how to read this tab
guitar tuner
×
Best way to learn
"Habla Por Mi Señor"
Autoscroll
slow
fast
+/-
esc
set tempo
stop
ACORDES:> C#  C#7   F#   G#7
(acordes originales)

Esta la introducción y lo usan como solo de guitarra

Solo de guitarra:
e----4-6--9---4-6--9----4-6--9----4-6--9------
B---------------------------------------------
G---------------------------------------------
D---------------------------------------------
A---------------------------------------------
E---------------------------------------------

e-12-13---11---9-9--8--------------------------
B------------------------6-7--6---6-7---9------
G-------------------------------8--------------
D----------------------------------------------
A----------------------------------------------
E----------------------------------------------

e----4-6--9----4-6--9----4-6--9----4-6--9-----
B---------------------------------------------
G---------------------------------------------
D---------------------------------------------
A---------------------------------------------
E---------------------------------------------

e-12-13---11---9-9--8------------------------------------
B--------------------------------6-7--6---6--------------
G----------------------------------------8----8---6------
D--------------------------------------------------------
A--------------------------------------------------------
E--------------------------------------------------------

E ---------------------------------------------
B----------------------------------------------
G----------------------------------------------
D-----6--8---6-----4--4--6--4------------------
A---------------------------------4------------
E----------------------------------------------

Bueno saludos, esta es mi primera transcripcion espero les sirva,
cualquier duda mi correo "edson2612@
Suggest correction
Give kudos to tab author, rate the tab!
1 2 3 4 5
comments
print report bad tab
guest
You may want to rate the tab now too:
select rating
Wanna post a correction for this tab? Suggest correction