Oops, an error
Loading. Please wait.

Porqué Te Alejas De Tu Señor? Tab

92 views 1 this week
no commentswrite comment
1 2 3 4 5
3 more votes to show rating
add to favorites
launch autoscroll
font size
0
reset
how to read this tab
guitar tuner
×
Best way to learn
"Porqué Te Alejas De Tu Señor?"
Autoscroll
slow
fast
+/-
esc
set tempo
stop
Dios los Bendiga, esta es el intro de la cancion, la saque a puro oído y
pues espero que les guste, todo sea para la Gloria de Nuestro Dios..


e|-------------------------------|-----------------------------|
B|-------------------------------|-----------------------------|
G|--5---9/10--9---7----9/12-10-9-|-9-10-12?12/14--12-10-9-7-5--|
D|-------------------------------|-----------------------------|
A|-------------------------------|-----------------------------|
E|-------------------------------|-----------------------------|

e|--------------------------|------------------------------------|
B|--------------------------|------------------------------------|
G|--9/10--9---7----9/12-10-9|-9-10-12-10---7--5------------------|
D|--------------------------|--------------------7--5-------5--3-|
A|--------------------------|---------------------------7--------|
E|--------------------------|------------------------------------|
Suggest correction
Give kudos to tab author, rate the tab!
1 2 3 4 5
comments
print report bad tab
guest
You may want to rate the tab now too:
select rating
Wanna post a correction for this tab? Suggest correction