Oops, an error
Loading. Please wait.

Aquel Quien La Buena Obra Empezó Tab

72 views 1 this week
no commentswrite comment
1 2 3 4 5
3 more votes to show rating
add to favorites
launch autoscroll
font size
0
reset
how to read this tab
guitar tuner
×
Best way to learn
"Aquel Quien La Buena Obra Empezó"
Autoscroll
slow
fast
+/-
esc
set tempo
stop
e|----------0--------------|---------0------5-|
B|----0-2-0-----3-3/5-2-0--|---0-2-0----------|
G|--2----------------------|-2-----------6h7--|
D|-------------------------|------------------|
A|--0-----------2----------|-0----------7-----|
E|--------4----------------|-------4----------|

e|------0-*---------4-2-----------4------------5-----|
B|----0---*-------------0-------5---5--------3---3---|
G|--2-----*-------2-----------4-------4----4-------4-|
D|--------*---------2-2-----6------------2-----------|
A|--0-----*-----4---------4--------------------------|
E|----4---*-0-2--------------------------------------|
    Aquel   quien la buena obra empezo

e|------0-*---------4-2-----------4-------------2-----|
B|----0---*-------------0-------5---5---------2---2---|
G|--2-----*-------2-----------4-------4-----3-------3-|
D|--------*---------2-2-----6-------------4-----------|
A|--0-----*-----4---------4---------------------------|
E|----4---*-0-2-------------------------6-------------|
    Aquel   quien la buena obra empezo sera fiel en completarla


e|---------2-----------5-----|---------2-----------5-----|
B|-------3---3-------3---3---|-------3---3-------3---3---|
G|-----2-------2---4-------4-|-----2-------2---4-------4-|
D|---4-----------2-----------|---4-----------2-----------|
A|-2-------------------------|-2-------------------------|
E|---------------------------|---------------------------|
   El es fiel en completarla    El que la comenzo

e|-------------------------|
B|-------3-------3-------3-|
G|-----2-------2-------2---|
D|---4-------0-------2-----|
A|-2-------4-------5-------|
E|-------------------------|
   Sera fiel en completarla en ti

e|----------0-------5-12-10--|
B|----0-2-0------------------|
G|--2-----------6-7----------|
D|---------------------------|
A|--0---------7--------------|
E|--------4------------------|

       A           E/G#
Si la lucha que enfrentas
  F#m      C#m       D           Bm
A tu esperanza tornó ya sin paz
      E
O de tanto esperar
       E7                  A     E7
Ya perdiendo tu canción estás
 A       E/G#        F#m      C#m
Puedes creer que su mano esta en ti
   D                Bm
Seguro estás nunca te ha de abandonar
E              E7               A
Eres su gozo y su gran tesoro aquí

e|------0-*---------4-2-----------4------------5-----|
B|----0---*-------------0-------5---5--------3---3---|
G|--2-----*-------2-----------4-------4----4-------4-|
D|--------*---------2-2-----6------------2-----------|
A|--0-----*-----4---------4--------------------------|
E|----4---*-0-2--------------------------------------|
    Aquel   quien la buena obra empezo

e|------0-*---------4-2-----------4-------------2-----|
B|----0---*-------------0-------5---5---------2---2---|
G|--2-----*-------2-----------4-------4-----3-------3-|
D|--------*---------2-2-----6-------------4-----------|
A|--0-----*-----4---------4---------------------------|
E|----4---*-0-2-------------------------6-------------|
    Aquel   quien la buena obra empezo sera fiel en completarla


e|---------2-----------5-----|---------2-----------5-----|
B|-------3---3-------3---3---|-------3---3-------3---3---|
G|-----2-------2---4-------4-|-----2-------2---4-------4-|
D|---4-----------2-----------|---4-----------2-----------|
A|-2-------------------------|-2-------------------------|
E|---------------------------|---------------------------|
   El es fiel en completarla    El que la comenzo

e|-------------------------|
B|-------3-------3-------3-|
G|-----2-------2-------2---|
D|---4-------0-------2-----|
A|-2-------4-------5-------|
E|-------------------------|
   Sera fiel en completarla en ti

e|----------0-------5-12-10--|
B|----0-2-0------------------|
G|--2-----------6-7----------|
D|---------------------------|
A|--0---------7--------------|
E|--------4------------------|
Suggest correction
Give kudos to tab author, rate the tab!
1 2 3 4 5
comments
print report bad tab
guest
You may want to rate the tab now too:
select rating
Wanna post a correction for this tab? Suggest correction