Oops, an error
Loading. Please wait.

Desilusión bass

version 1
version 1

Whole song

Interactive

14 views 1 this week
no commentswrite comment
1 2 3 4 5
3 more votes to show rating
add to favorites
×
Save as Personal and add changes to this tab that will be seen only by you. Learn more ›
×
You can save this tab as Personal to edit and correct it or add notes. All changes will be seen only by you. Learn more »
launch autoscroll
font size
0
reset
guitar tuner
edit
Autoscroll
slow
fast
+/-
esc
set tempo
stop
dudas???? 

                           Q.      Q    E  S E.
G||-------|-------|-------|-------|-------------------------|
D||-------|-------|-------|-------|-------------------------|
A||-------|-------|-------|-------|--15s------3----3--1-3---|
E||-------|-------|-------|-------|-------------------------|


   Q.      Q    E  S E.      Q.      Q    E  S E.
-------------------------|-------------------------|
-------------------------|-------------------------|
--11s------3----3--1-3---|--15s------3----3--1-3---|
-------------------------|-------------------------|


   Q.      Q    E  S E.      Q.      Q    E.  E.
-------------------------|------------------------|
-------------------------|------------------------|
--11s------3----3--1-3---|--15s------3--------3---|
-------------------------|------------------------|


   Q.      Q    E.  E.      Q.      Q    E.  E.
------------------------|------------------------|
------------------------|------------------------|
--11s------3--------3---|--15s------3--------3---|
------------------------|------------------------|


   Q.      Q    E.  E.      Q.      Q    E.  E.
------------------------|------------------------|
------------------------|------------------------|
--11s------3--------3---|--15s------3--------3---|
------------------------|------------------------|


   Q.      Q    E.  E.      Q.      Q    E.  E.
------------------------|------------------------|
------------------------|------------------------|
--11s------3--------3---|--15s------3--------3---|
------------------------|------------------------|


   Q.      Q    E.  E.     H        E  E  S E.
------------------------|-----------------------|
------------------------|-----------------------|
--11s------3------------|--3--------L--3--3-3---|
------------------------|-----------------------|


  H        E  E  S E.     H        E  E  S E.
-----------------------|-----------------------|
-----------------------|-----------------------|
-----------------------|--3--------L--3--3-3---|
--4--------L--4--4-4---|-----------------------|


  H        E  E  S E.     H        E  E  S E.
-----------------------|-----------------------|
-----------------------|-----------------------|
--1--------L--1--1-1---|--3--------L--3--3-3---|
-----------------------|-----------------------|


  H        E  E  S E.     H        E  E  S E.
-----------------------|-----------------------|
-----------------------|-----------------------|
-----------------------|--3--------L--3--3-3---|
--4--------L--4--4-4---|-----------------------|


  H        E  E  S E.     E  E  E  E  E  E  E  E
-----------------------|--------------------------|
-----------------------|--------------------------|
-----------------------|--------------------------|
--4--------L--4--4-4---|--6--6--6--6--6--6--6--6--|


  H        E  E  E  E     E  E  E  E  S S E  Q
-----------------------|--------------------------|
-----------------------|--------------------------|
-----------------------|--3--3--3--3--3-3-3--3----|
--4--------L--4--4--4--|--------------------------|


  E  E  E  E  S S E  Q       E  E  E  E  E  E  E  E
--------------------------|--------------------------|
--------------------------|--------------------------|
--3--3--3--3--3-3-3--3----|--------------------------|
--------------------------|--6--6--6--6--6--6--6--6--|


  H        E  E  E  E     E  E  E  E  S S E  Q
-----------------------|--------------------------|
-----------------------|--------------------------|
-----------------------|--3--3--3--3--3-3-3--3----|
--4--------L--4--4--4--|--------------------------|


  E  E  E  E  S S E  Q       E  E  E  E  E  E  E  E
--------------------------|--------------------------|
--------------------------|--------------------------|
--3--3--3--3--3-3-3--3----|--------------------------|
--------------------------|--6--6--6--6--6--6--6--6--|


  H        E  E  E  E     W                   W
-----------------------|-------------------|-------------------|
-----------------------|-------------------|-------------------|
-----------------------|--3----------------|--1----------------|
--4--------L--4--4--4--|-------------------|-------------------|


  E  E  E  E  E  E  E  E     E  E  E  E  E  E  E  E
--------------------------|--------------------------|
--------------------------|--------------------------|
--------------------------|--------------------------|
--4--4--4--4--4--3--3--4--|--6--6--6--6--6--6--6--6--|


  E  E  E  E  E  E  E  E     E  Q.     H
--------------------------|---------------------|-------|-------|
--------------------------|---------------------|-------|-------|
--------------------------|---------------------|-------|-------|
--7--7--7--7--7--7--7--7--|--7------------------|-------|-------|


  H        E  E  S E.     H        E  E  S E.
-----------------------|-----------------------|
-----------------------|-----------------------|
--3--------L--3--3-3---|-----------------------|
-----------------------|--4--------L--4--4-4---|


  H        E  E  S E.     H        E  E  S E.
-----------------------|-----------------------|
-----------------------|-----------------------|
--3--------L--3--3-3---|--1--------L--1--1-1---|
-----------------------|-----------------------|


  H        E  E  S E.     H        E  E  S E.
-----------------------|-----------------------|
-----------------------|-----------------------|
--3--------L--3--3-3---|-----------------------|
-----------------------|--4--------L--4--4-4---|


  H        E  E  S E.     H        E  E  S E.
-----------------------|-----------------------|
-----------------------|-----------------------|
--3--------L--3--3-3---|-----------------------|
-----------------------|--4--------L--4--4-4---|


  H        E  E  S E.     H        E  E  S E.
-----------------------|-----------------------|
-----------------------|-----------------------|
--3--------L--3--3-3---|-----------------------|
-----------------------|--4--------L--4--4-4---|


  H        E  E  S E.     H        E  E  S E.
-----------------------|-----------------------|
-----------------------|-----------------------|
--3--------L--3--3-3---|--1--------L--1--1-1---|
-----------------------|-----------------------|


  H        E  E  S E.     H        E  E  S E.
-----------------------|-----------------------|
-----------------------|-----------------------|
--3--------L--3--3-3---|-----------------------|
-----------------------|--4--------L--4--4-4---|


  H        E  E  S E.     H        E  E  S E.
-----------------------|-----------------------|
-----------------------|-----------------------|
--3--------L--3--3-3---|-----------------------|
-----------------------|--4--------L--4--4-4---|


  E  E  E  E  E  E  E  E     H        E  E  E  E
--------------------------|-----------------------|
--------------------------|-----------------------|
--------------------------|-----------------------|
--6--6--6--6--6--6--6--6--|--4--------L--4--4--4--|


  E  E  E  E  S S E  Q       E  E  E  E  S S E  Q
--------------------------|--------------------------|
--------------------------|--------------------------|
--3--3--3--3--3-3-3--3----|--3--3--3--3--3-3-3--3----|
--------------------------|--------------------------|


  E  E  E  E  E  E  E  E     H        E  E  E  E
--------------------------|-----------------------|
--------------------------|-----------------------|
--------------------------|-----------------------|
--6--6--6--6--6--6--6--6--|--4--------L--4--4--4--|


  E  E  E  E  S S E  Q       E  E  E  E  S S E  Q
--------------------------|--------------------------|
--------------------------|--------------------------|
--3--3--3--3--3-3-3--3----|--3--3--3--3--3-3-3--3----|
--------------------------|--------------------------|


  E  E  E  E  E  E  E  E     H        E  E  E  E
--------------------------|-----------------------|
--------------------------|-----------------------|
--------------------------|-----------------------|
--6--6--6--6--6--6--6--6--|--4--------L--4--4--4--|


  E   Q    E  E  E  Q       E   Q    E  E  E  Q
-----/5----3-------------|-----/5----3-------------|
--------------5----------|--------------5----------|
--3--------------3--3----|--1--------------1--1----|
-------------------------|-------------------------|


  E  E  E  E  E  E  E  E     E  E  E  E  E  E  E  E
--------------------------|--------------------------|
--------------------------|--------------------------|
--------------------------|--------------------------|
--4--4--4--4--4--3--3--4--|--6--6--6--6--6--6--6--6--|


  E  E  E  E  E  E  E  E     W
--------------------------|-------------------|
--------------------------|-------------------|
--------------------------|-------------------|
--7--7--7--7--7--7--7--7--|--7----------------|


  E.  S S S Q.     Q       E.  S S S Q.     Q
------------------------|------------------------|
------------------------|------------------------|
--3---3-3-3-3------L----|------------------------|
------------------------|--4---4-4-4-4------L----|


  S S S S E  S S S S E  E  E     E  Q    Q.     Q
------------------------------|----------------------|
------------------------------|----------------------|
--1-1-1-1-1--1-1-1-1-1--------|----------------------|
---------------------------4--|--L--4----3------3----|


  E.  S S S Q.     Q       E.  S S S Q.     Q
------------------------|------------------------|
------------------------|------------------------|
--3---3-3-3-3------L----|------------------------|
------------------------|--4---4-4-4-4------L----|


  S S S S E  S S S S E  E  E     E  Q    Q    Q    E
------------------------------|-----------------------|
------------------------------|-----------------------|
--1-1-1-1-1--1-1-1-1-1--------|-----------------------|
---------------------------4--|--L--4----6----6----7--|


  E  E  E  E  E  E  E  E     E  E  E  E  H
--------------------------|-----------------------|
--------------------------|-----------------------|
--------------------------|-----------------------|
--7--7--7--7--7--7--7--7--|--7--7--7--7--7--------|


  H.           Q       H.           Q       H.           Q
--------------------|--------------------|--------------------|
--------------------|--------------------|--------------------|
--3------------3----|--------------------|--3------------3----|
--------------------|--4------------4----|--------------------|


  H.           Q       H.           Q       H.           Q
--------------------|--------------------|--------------------|
--------------------|--------------------|--------------------|
--1------------1----|--3------------3----|--------------------|
--------------------|--------------------|--4------------4----|


  H.           Q       H.           Q       E  E  E  E  E  E  E  E
--------------------|--------------------|--------------------------|
--------------------|--------------------|--------------------------|
--3------------3----|--1------------1----|--------------------------|
--------------------|--------------------|--6--6--6--6--6--6--6--6--|


  H        E  E  E  E     E  E  E  E  S S E  Q
-----------------------|--------------------------|
-----------------------|--------------------------|
-----------------------|--3--3--3--3--3-3-3--3----|
--4--------L--4--4--4--|--------------------------|


  E  E  E  E  S S E  Q       E  E  E  E  E  E  E  E
--------------------------|--------------------------|
--------------------------|--------------------------|
--3--3--3--3--3-3-3--3----|--------------------------|
--------------------------|--6--6--6--6--6--6--6--6--|


  H        E  E  E  E     E  E  E  E  S S E  Q
-----------------------|--------------------------|
-----------------------|--------------------------|
-----------------------|--3--3--3--3--3-3-3--3----|
--4--------L--4--4--4--|--------------------------|


  E  E  E  E  E  E  E  E     E  E  E  E  E  E  E  E
--------------------------|--------------------------|
--------------------------|--------------------------|
--------------------------|--------------------------|
--6--6--6--6--6--6--6--6--|--4--4--4--4--4--3--3--4--|


  E  E  E  E  E  E  E  E     E  E  E  E  E  E  E  E
--------------------------|--------------------------|
--------------------------|--------------------------|
--------------------------|--------------------------|
--6--6--6--6--6--6--6--6--|--7--7--7--7--7--7--7--7--|


  W                   E  E  E  E  E  E  E  E
-------------------|--------------------------|
-------------------|--------------------------|
-------------------|--------------------------|
--7----------------|--4--4--4--4--4--4--4--4--|


  H        E  E  E  E     E  E  E  E  S S E  Q
-----------------------|--------------------------|
-----------------------|--------------------------|
-----------------------|--3--3--3--3--3-3-3--3----|
--4--------L--4--4--4--|--------------------------|


  E  E  E  E  S S E  Q       E  E  E  E  E  E  E  E
--------------------------|--------------------------|
--------------------------|--------------------------|
--3--3--3--3--3-3-3--3----|--------------------------|
--------------------------|--6--6--6--6--6--6--6--6--|


  H        E  E  E  E     E  E  E  E  S S E  Q
-----------------------|--------------------------|
-----------------------|--------------------------|
-----------------------|--3--3--3--3--3-3-3--3----|
--4--------L--4--4--4--|--------------------------|


  E  E  E  E  S S E  Q       E  E  E  E  E  E  E  E
--------------------------|--------------------------|
--------------------------|--------------------------|
--3--3--3--3--3-3-3--3----|--------------------------|
--------------------------|--6--6--6--6--6--6--6--6--|


  H        E  E  E  E     E   Q    E  E  E  Q
-----------------------|-----/5----3-------------|
-----------------------|--------------5----------|
-----------------------|--3--------------3--3----|
--4--------L--4--4--4--|-------------------------|


  E   Q    E  E  E  Q       E  E  E  E  E  E  E  E
-----/5----3-------------|--------------------------|
--------------5----------|--------------------------|
--1--------------1--1----|--------------------------|
-------------------------|--4--4--4--4--4--3--3--4--|


  E  E  E  E  E  E  E  E     E  E  E  E  E  E  E  E
--------------------------|--------------------------|
--------------------------|--------------------------|
--------------------------|--------------------------|
--6--6--6--6--6--6--6--6--|--7--7--7--7--7--7--7--7--|


  W                   E.  S S S Q.     Q       E.  S S S Q.     Q
-------------------|------------------------|------------------------|
-------------------|------------------------|------------------------|
-------------------|--3---3-3-3-3------L----|------------------------|
--7----------------|------------------------|--4---4-4-4-4------L----|


  S S S S E  S S S S E  E  E     E  Q    Q.     Q
------------------------------|----------------------|
------------------------------|----------------------|
--1-1-1-1-1--1-1-1-1-1--------|----------------------|
---------------------------4--|--L--4----3------3----|


  E.  S S S Q.     Q       E.  S S S Q.     Q
------------------------|------------------------|
------------------------|------------------------|
--3---3-3-3-3------L----|------------------------|
------------------------|--4---4-4-4-4------L----|


  S S S S E  S S S S E  E  E     E  Q    Q    Q    E
------------------------------|-----------------------|
------------------------------|-----------------------|
--1-1-1-1-1--1-1-1-1-1--------|-----------------------|
---------------------------4--|--L--4----6----6----7--|


  E.  S S S Q.     Q       E.  S S S Q.     Q
------------------------|------------------------|
------------------------|------------------------|
--3---3-3-3-3------L----|------------------------|
------------------------|--4---4-4-4-4------L----|


  S S S S E  S S S S E  E  E     E  Q    Q.     Q
------------------------------|----------------------|
------------------------------|----------------------|
--1-1-1-1-1--1-1-1-1-1--------|----------------------|
---------------------------4--|--L--4----3------3----|


  E.  S S S Q.     Q       E.  S S S Q.     Q
------------------------|------------------------|
------------------------|------------------------|
--3---3-3-3-3------L----|------------------------|
------------------------|--4---4-4-4-4------L----|


  S S S S E  S S S S E  E  E     E  Q    Q    Q    E
------------------------------|-----------------------|
------------------------------|-----------------------|
--1-1-1-1-1--1-1-1-1-1--------|-----------------------|
---------------------------4--|--L--4----6----6----7--|


  E  E  E  E  E  E  E  E     E  E  E  E  H
--------------------------|-----------------------|
--------------------------|-----------------------|
--------------------------|-----------------------|
--7--7--7--7--7--7--7--7--|--7--7--7--7--7--------|


  |--3--|  |--3--|  |--3--|  |--3--|
  E  E  E  E  E  E  E  E  E  E  E  E
--------------------------------------|
--------------------------------------|
--3--3--3--3--3--3--3--3--3--3--3--3--|
--------------------------------------|


  |--3--|  |--3--|  |--3--|  |--3--|
  E  E  E  E  E  E  E  E  E  E  E  E
--------------------------------------|
--------------------------------------|
--1--1--1--1--1--1--1--1--1--1--1--1--|
--------------------------------------|


  |--3--|  |--3--|  |--3--|  |--3--|
  E  E  E  E  E  E  E  E  E  E  E  E
--------------------------------------|
--------------------------------------|
--------------------------------------|
--1--1--1--1--1--1--1--1--1--1--1--1--|


  |--3--|  |--3--|  |--3--|  |--3--|
  E  E  E  E  E  E  E  E  E  E  E  E
--------------------------------------|
--------------------------------------|
--------------------------------------|
--1--1--1--1--1--1--1--1--1--1--1--1--|


  |--3--|  |--3--|  |--3--|  |--3--|
  E  E  E  E  E  E  E  E  E  E  E  E
--------------------------------------|
--------------------------------------|
--3--3--3--3--3--3--3--3--3--3--3--3--|
--------------------------------------|


  |--3--|  |--3--|  |--3--|  |--3--|
  E  E  E  E  E  E  E  E  E  E  E  E
--------------------------------------|
--------------------------------------|
--1--1--1--1--1--1--1--1--1--1--1--1--|
--------------------------------------|


  |--3--|  |--3--|  |--3--|  |--3--|
  E  E  E  E  E  E  E  E  E  E  E  E
--------------------------------------|
--------------------------------------|
--------------------------------------|
--1--1--1--1--1--1--1--1--1--1--1--1--|


  |--3--|  |--3--|  |--3--|  |--3--|
  E  E  E  E  E  E  E  E  E  E  E  E
--------------------------------------|
--------------------------------------|
--------------------------------------|
--1--1--1--1--1--1--1--1--1--1--1--1--|


  |--3--|  |--3--|  |--3--|  |--3--|
  E  E  E  E  E  E  E  E  E  E  E  E
--------------------------------------|
--------------------------------------|
--3--3--3--3--3--3--3--3-----3-----3--|
--------------------------------------|


  |--3--|  |--3--|  |--3--|  |--3--|
  E  E  E  E  E  E  E  E  E  E  E  E     W
--------------------------------------|-------------------|
--------------------------------------|-------------------|
--1--1--1--1--1--1--1--1-----1-----1--|-------------------|
--------------------------------------|--1----------------|


                      |--3--|  |--3--|  |--3--|  |--3--|
  W                   E  E  E  E  E  E  E  E  E  E  E  E
-------------------|--------------------------------------|
-------------------|--------------------------------------|
-------------------|--------------------------------------|
--L----------------|--3--3--3--3--3--3--3--3--3--3--3--3--|


  |--3--|  |--3--|  |--3--|  |--3--|
  E  E  E  E  E  E  E  E  E  E  E  E
--------------------------------------|
--------------------------------------|
--6--6--6--6--6--6--6--6--6--6--6--6--|
--------------------------------------|


  |--3--|  |--3--|  |--3--|  |--3--|
  E  E  E  E  E  E  E  E  E  E  E  E
--------------------------------------|
--------------------------------------|
--------------------------------------|
--4--4--4--4--4--4--4--4--4--4--4--4--|


  |--3--|  |--3--|  |--3--|  |--3--|
  E  E  E  E  E  E  E  E  E  E  E  E
--------------------------------------|
--------------------------------------|
--------------------------------------|
--6--6--6--6--6--6--6--6--6--6--6--6--|


  |--3--|  |--3--|  |--3--|  |--3--|
  E  E  E  E  E  E  E  E  E  E  E  E
--------------------------------------|
--------------------------------------|
--3--3--3--3--3--3--3--3--3--3--3--3--|
--------------------------------------|


  |--3--|  |--3--|  |--3--|  |--3--|
  E  E  E  E  E  E  E  E  E  E  E  E
--------------------------------------|
--------------------------------------|
--1--1--1--1--1--1--1--1--1--1--1--1--|
--------------------------------------|


  |--3--|  |--3--|  |--3--|  |--3--|
  E  E  E  E  E  E  E  E  E  E  E  E
--------------------------------------|
--------------------------------------|
--------------------------------------|
--1--1--1--1--1--1--1--1--1--1--1--1--|


  |--3--|  |--3--|  |--3--|  |--3--|
  E  E  E  E  E  E  E  E  E  E  E  E
--------------------------------------|
--------------------------------------|
--------------------------------------|
--1--1--1--1--1--1--1--1--1--1--1--1--|


  |--3--|  |--3--|  |--3--|  |--3--|
  E  E  E  E  E  E  E  E  E  E  E  E
--------------------------------------|
--------------------------------------|
--3--3--3--3--3--3--3--3--3--3--3--3--|
--------------------------------------|


  |--3--|  |--3--|  |--3--|  |--3--|
  E  E  E  E  E  E  E  E  E  E  E  E
--------------------------------------|
--------------------------------------|
--1--1--1--1--1--1--1--1--1--1--1--1--|
--------------------------------------|


  |--3--|  |--3--|  |--3--|  |--3--|
  E  E  E  E  E  E  E  E  E  E  E  E
--------------------------------------|
--------------------------------------|
--------------------------------------|
--1--1--1--1--1--1--1--1--1--1--1--1--|


  |--3--|  |--3--|  |--3--|  |--3--|
  E  E  E  E  E  E  E  E  E  E  E  E
--------------------------------------|
--------------------------------------|
--------------------------------------|
--1--1--1--1--1--1--1--1--1--1--1--1--|


  |--3--|  |--3--|  |--3--|  |--3--|
  E  E  E  E  E  E  E  E  E  E  E  E
--------------------------------------|
--------------------------------------|
--3--3--3--3--3--3--3--3-----3-----3--|
--------------------------------------|


  |--3--|  |--3--|  |--3--|  |--3--|
  E  E  E  E  E  E  E  E  E  E  E  E     W
--------------------------------------|-------------------|
--------------------------------------|-------------------|
--1--1--1--1--1--1--1--1-----1-----1--|-------------------|
--------------------------------------|--1----------------|


                      |--3--|  |--3--|  |--3--|  |--3--|
  W                   E  E  E  E  E  E  E  E  E  E  E  E
-------------------|--------------------------------------|
-------------------|--------------------------------------|
-------------------|--------------------------------------|
--L----------------|--3--3--3--3--3--3--3--3--3--3--3--3--|


  |--3--|  |--3--|  |--3--|  |--3--|
  E  E  E  E  E  E  E  E  E  E  E  E
--------------------------------------|
--------------------------------------|
--6--6--6--6--6--6--6--6--6--6--6--6--|
--------------------------------------|


  |--3--|  |--3--|  |--3--|  |--3--|
  E  E  E  E  E  E  E  E  E  E  E  E
--------------------------------------|
--------------------------------------|
--------------------------------------|
--4--4--4--4--4--4--4--4--4--4--4--4--|


  |--3--|  |--3--|  |--3--|  |--3--|
  E  E  E  E  E  E  E  E  E  E  E  E
--------------------------------------|
--------------------------------------|
--------------------------------------|
--6--6--6--6--6--6--6--6--6--6--6--6--|


  |--3--|  |--3--|  |--3--|  |--3--|
  E  E  E  E  E  E  E  E  E  E  E  E
--------------------------------------|
--------------------------------------|
--3--3--3--3--3--3--3--3--3--3--3--3--|
--------------------------------------|


  |--3--|  |--3--|  |--3--|  |--3--|
  E  E  E  E  E  E  E  E  E  E  E  E
--------------------------------------|
--------------------------------------|
--1--1--1--1--1--1--1--1--1--1--1--1--|
--------------------------------------|


  |--3--|  |--3--|  |--3--|  |--3--|
  E  E  E  E  E  E  E  E  E  E  E  E
--------------------------------------|
--------------------------------------|
--------------------------------------|
--4--4--4--4--4--4--4--4--4--4--4--4--|


  |--3--|  |--3--|  |--3--|  |--3--|
  E  E  E  E  E  E  E  E  E  E  E  E
--------------------------------------|
--------------------------------------|
--------------------------------------|
--4--4--4--4--4--4--4--4--4--4--4--4--|


  |--3--|  |--3--|  |--3--|  |--3--|
  E  E  E  E  E  E  E  E  E  E  E  E
--------------------------------------|
--------------------------------------|
--3--3--3--3--3--3--3--3--3--3--3--3--|
--------------------------------------|


  |--3--|  |--3--|  |--3--|  |--3--|
  E  E  E  E  E  E  E  E  E  E  E  E
--------------------------------------|
--------------------------------------|
--1--1--1--1--1--1--1--1--1--1--1--1--|
--------------------------------------|


  |--3--|  |--3--|  |--3--|  |--3--|
  E  E  E  E  E  E  E  E  E  E  E  E
--------------------------------------|
--------------------------------------|
--------------------------------------|
--4--4--4--4--4--4--4--4--4--4--4--4--|


  |--3--|  |--3--|  |--3--|  |--3--|
  E  E  E  E  E  E  E  E  E  E  E  E
--------------------------------------|
--------------------------------------|
--------------------------------------|
--4--4--4--4--4--4--4--4--4--4--4--4--|


  |--3--|  |--3--|  |--3--|  |--3--|
  E  E  E  E  E  E  E  E  E  E  E  E
--------------------------------------|
--------------------------------------|
--3--3--3--3--3--3--3--3--3--3--3--3--|
--------------------------------------|


  |--3--|  |--3--|  |--3--|  |--3--|
  E  E  E  E  E  E  E  E  E  E  E  E
--------------------------------------|
--------------------------------------|
--1--1--1--1--1--1--1--1--1--1--1--1--|
--------------------------------------|


  |--3--|  |--3--|  |--3--|  |--3--|
  E  E  E  E  E  E  E  E  E  E  E  E
--------------------------------------|
--------------------------------------|
--------------------------------------|
--4--4--4--4--4--4--4--4--4--4--4--4--|


  |--3--|  |--3--|  |--3--|  |--3--|
  E  E  E  E  E  E  E  E  E  E  E  E
--------------------------------------|
--------------------------------------|
--------------------------------------|
--4--4--4--4--4--4--4--4--4--4--4--4--|


  |--3--|  |--3--|  |--3--|  |--3--|
  E  E  E  E  E  E  E  E  E  E  E  E
--------------------------------------|
--------------------------------------|
--3--3--3--3--3--3--3--3--3--3--3--3--|
--------------------------------------|


  |--3--|  |--3--|  |--3--|  |--3--|
  E  E  E  E  E  E  E  E  E  E  E  E
--------------------------------------|
--------------------------------------|
--1--1--1--1--1--1--1--1--1--1--1--1--|
--------------------------------------|


  |--3--|  |--3--|  |--3--|  |--3--|
  E  E  E  E  E  E  E  E  E  E  E  E
--------------------------------------|
--------------------------------------|
--------------------------------------|
--4--4--4--4--4--4--4--4--4--4--4--4--|


  |--3--|  |--3--|  |--3--|  |--3--|
  E  E  E  E  E  E  E  E  E  E  E  E
--------------------------------------|
--------------------------------------|
--------------------------------------|
--4--4--4--4--4--4--4--4--4--4--4--4--|


  |--3--|  |--3--|  |--3--|  |--3--|
  E  E  E  E  E  E  E  E  E  E  E  E
--------------------------------------|
--------------------------------------|
--3--3--3--3--3--3--3--3--3--3--3--3--|
--------------------------------------|


  |--3--|  |--3--|  |--3--|  |--3--|
  E  E  E  E  E  E  E  E  E  E  E  E
--------------------------------------|
--------------------------------------|
--1--1--1--1--1--1--1--1--1--1--1--1--|
--------------------------------------|


  |--3--|  |--3--|  |--3--|  |--3--|
  E  E  E  E  E  E  E  E  E  E  E  E
--------------------------------------|
--------------------------------------|
--------------------------------------|
--4--4--4--4--4--4--4--4--4--4--4--4--|


  |--3--|  |--3--|  |--3--|  |--3--|
  E  E  E  E  E  E  E  E  E  E  E  E
--------------------------------------|
--------------------------------------|
--------------------------------------|
--4--4--4--4--4--4--4--4--4--4--4--4--|


  |--3--|  |--3--|  |--3--|  |--3--|
  E  E  E  E  E  E  E  E  E  E  E  E
--------------------------------------|
--------------------------------------|
--3--3--3--3--3--3--3--3--3--3--3--3--|
--------------------------------------|


  |--3--|  |--3--|  |--3--|  |--3--|
  E  E  E  E  E  E  E  E  E  E  E  E
--------------------------------------|
--------------------------------------|
--1--1--1--1--1--1--1--1--1--1--1--1--|
--------------------------------------|


  |--3--|  |--3--|  |--3--|  |--3--|
  E  E  E  E  E  E  E  E  E  E  E  E
--------------------------------------|
--------------------------------------|
--------------------------------------|
--4--4--4--4--4--4--4--4--4--4--4--4--|


  |--3--|  |--3--|  |--3--|  |--3--|
  E  E  E  E  E  E  E  E  E  E  E  E
--------------------------------------||
--------------------------------------||
--------------------------------------||
--4--4--4--4--4--4--4--4--4--4--4--4--||

dudas???? 

Duration Legend
---------------
W - whole
H - half
Q - quarter
E - 8th
S - 16th
T - 32nd
X - 64th
. - note dotted
|-n-|  - n-tuplets


Tablature Legend
----------------
L - tied note
x - dead note
g - grace note
(n) - ghost note
> - accentuded note
NH - natural harmonic
AH - artificial harmonic
TH - tapped harmonic
SH - semi harmonic
PH - pitch harmonic
h - hammer on
p - pull off
b - bend
br - bendRelease
pb - preBend
pbr - preBendRelease
brb - bendReleaseBend
n/ - tremolo bar dip
n - tremolo bar dive
-/n - tremolo bar Release up
/n - tremolo bar inverted dip
/n - tremolo bar return
-n - tremolo bar Release down
S - shift slide
s - legato slide
/ -  slide into from below or out of upwards
 -  slide into from above or out of downwards
~ - vibrato
W - wide vibrato
tr - trill
TP - tremolo picking
T - tapping
S - slap
P - pop
< - fade in
^ - brush up
v - brush down

            
            
Suggest correction
Creating personal tab
Creating personal tab
You can edit any tab online and save it as your Personal.

You can edit, replace or remove any tab part or add personal notes – all changes will be seen only by you.

Personal tabs can be accessed anytime from any device, even offline.
Learn more »
Give kudos to tab author, rate the tab!
1 2 3 4 5
comments
print report bad tab
guest
Wanna post a correction for this tab? Suggest correction