Oops, an error
Loading. Please wait.

Pasión Tab

77 views 3 this week
no commentswrite comment
1 2 3 4 5
3 more votes to show rating
add to favorites
launch autoscroll
font size
0
reset
how to read this tab
guitar tuner
Autoscroll
slow
fast
+/-
esc
set tempo
stop
Help us to improve Ultimate-Guitar.com Take our survey!
×
Hola a todos, aquí les dejo mi primera transcripción
de esta gran banda de metal gótico-sinfónico,
y una de mis favoritas. espero que la disfruten

Este es el inicio, la parte que hace la orquesta
(0:00)
E----------------------------------------------------------------|
B-------------------15-------------------------------------------|
G-14-16-17-14-17-14-----17-16-14---------------------------------|
D----------------------------------------------------------------|
A----------------------------------------------------------------|
E----------------------------------------------------------------|

Al terminar la primera parte, entra la guitarra
(0:03)
E----------------------------------------------------------------|
B----------------------------------------------------------------|
G----------------------------------------------------------------|
D--------------7------7-7-------7-7---7-7-------7-7---7-7--------|
A--------------7------7-7-------7-7---7-7-------7-7---7-7--------|
E--------------5------5-5-------5-5---5-5-------5-5---5-5--------|

Orquesta
(0:13)
E----------------------------------------------------------------|
B----------------17-15-------------------------------------------|
G-14-16-17-14-17--------17-16-14---------------------------------|
D----------------------------------------------------------------|
A----------------------------------------------------------------|
E----------------------------------------------------------------|

Guitarra
(0:18)
E----------------------------------------------------------------|
B----------------------------------------------------------------|
G----------------------------------------------------------------|
D--------------7------7-7-------7-7---7-7-------7-7---7-7--------|
A--------------7------7-7-------7-7---7-7-------7-7---7-7--------|
E--------------5------5-5-------5-5---5-5-------5-5---5-5--------|

Orquesta
(0:24)
E----------------------------------------------------------------|
B-------------------17-------------------------------------------|
G-14-16-17-14-17-14----------------------------------------------|
D----------------------------------------------------------------|
A----------------------------------------------------------------|
E----------------------------------------------------------------|

Guitarra
(0:26)
E----------------------------------------------------------------|
B----------------------------------------------------------------|
G----------------------------------------------------------------|
D--------------7-7-7-7-7---7-7-7-7-7-7-7-------------------------|
A--------------7-7-7-7-7---7-7-7-7-7-7-7-------------------------|
E--------------5-5-5-5-5---5-5-5-5-5-5-5-------------------------|

Orquesta (la guitarra sigue haciendo lo mismo)
(0:31)
E----------------------------------------------------------------|
B-17-15----------15-----------15---------15----------15----------|
G-------17-16-14----17-16-14----17-16-14----17-16-14----17-16-14-|
D----------------------------------------------------------------|
A----------------------------------------------------------------|
E----------------------------------------------------------------|

E----------------------------------------------------------------|
B--15----------15-----------15---------15----------15------------|
G-----17-16-14----17-16-14----17-16-14----17-16-14----17-16-14---|
D----------------------------------------------------------------|
A----------------------------------------------------------------|
E----------------------------------------------------------------|

(0:38)
E----------------------------------------------------------------|
B------------------17-15----17-17/18/17-15-----------------------|
G-14-16-17-14-17-14------17----------------17-16-14-12-14-15-----|
D----------------------------------------------------------------|
A----------------------------------------------------------------|
E----------------------------------------------------------------|

E----------------------------------------------------------------|
B----------------------------------------------------------------|
G-15/17/15-14-12-------------------------------------------------|
D----------------15-14-12-15----14----12----15-------------------|
A----------------------------------------------------------------|
E----------------------------------------------------------------|

(De fondo, la guitarra realiza lo siguiente)

E----------------------------------------------------------------|
B----------------------------------------------------------------|
G-----------7----------------------------------------------------|
D--7--------7--------7-7-7-7-7-7-7-7-7-7----------------7--------|
A--7--------5--------7-7-7-7-7-7-7-7-7-7----------------7--------|
E--5-----------------5-5-5-5-5-5-5-5-5-5----------------5--------|

Solamente la guitarra
(0:53)
E----------------------------------------------------------------|
B----------------------------------------------------------------|
G----------------------------------------------------------------|
D--7-7---7-7---7-7---7-7---7-7---7-7---7-7---7-7---7-------------|
A--7-7---7-7---7-7---7-7---7-7---7-7---7-7---7-7---7-------------|
E--5-5---5-5---5-5---5-5---5-5---5-5---5-5---5-5---5-------------|

(1:03)
E----------------------------------------------------------------|
B-------------3--------------------------------------------------|
G-2-4-5-2-4-2----------------------------------------------------|
D----------------------------------------------------------------|
A----------------------------------------------------------------|
E----------------------------------------------------------------|


(1:07)

  Inspiración, la belleza ha embriagado mi alma
E----------------------------------------------------------------|
B-----------------------------------------------------3-5--------|
G---------7-----------------------------9-----2-4-5-5------------|
D-7-------7----7----------5-------------9------------------------|
A-7-------5----7----------5-------------7------------------------|
E-5------------5----------3--------------------------------------|

  Adoración, AbrumaDO por MI senti mi  en  to
E----------------------------------------------------------------|
B----------------------------------------------------------------|
G--------5-------------------------9---5---9---------------------|
D-7------5----7-----------5--------9-7-5-3-9-7-------------------|
A-7------3----7-----------5--------7-7-3-3-7-7-------------------|
E-5-----------5-----------3----------5---1---5-------------------|

Orquesta
(1:32)
E----------------------------------------------------------------|
B----17/18/17-15-------------------------------------------------|
G-14-------------17-16-14-12-15-15/17/15-14-12-------------------|
D----------------------------------------------15-14-12-15-14-12-|
A----------------------------------------------------------------|
E----------------------------------------------------------------|

                  La guitarra hace lo siguiente de fondo
E----------------|-----------------------------------------------|
B----------------|-----------------------------------------------|
G----------------|-5----------------------------------------9----|
D-14----12----15-|-5-------7-7-7--7-7-7--7-7-7--7-7-7-------9----|
A----------------|-3-------7-7-7--7-7-7--7-7-7--7-7-7-------7----|
E----------------|---------5-5-5--5-5-5--5-5-5--5-5-5------------|

(1:45)
  Fascinación,  conmovido ante un atar de cer
E----------------------------------------------------------------|
B----------------------------------------------------------------|
G---------7-7-7------------------------9-------------------------|
D-7-7-7-7-7-7-7--7-7-7-7-7-7-7-5-5-5-3-9--7-7-7--7-7-7--7-7-7----|
A-7-7-7-7-5-5-5--7-7-7-7-7-7-7-5-5-5-3-7--7-7-7--7-7-7--7-7-7----|
E-5-5-5-5--------5-5-5-5-5-5-5-3-3-3-1----5-5-5--5-5-5--5-5-5----|

  Admiración,    amarás el silbido del viento
E----------------------------------------------------------------|
B----------------------------------------------------------------|
G---------7-7-7------------------------9-------------------------|
D-7-7-7-7-7-7-7--7-7-7-7-7-7-7-5-5-5-5-9--7----------------------|
A-7-7-7-7-5-5-5--7-7-7-7-7-7-7-5-5-5-5-7--7----------------------|
E-5-5-5-5--------5-5-5-5-5-5-5-3-3-3-3----5----------------------|


(2:08)
(La parte prominente es la guitarra, el fondo lo hace la orquesta)
  A5       E5              G5              A5      E5       A5
E----------------------------------------------15--17------------|
B------------------15------15--17--18------18--------------------|
G-14-------16--17------------------------------------------------|
D----------------------------------------------------------------|
A----------------------------------------------------------------|
E----------------------------------------------------------------|

(2:26)
Primer solo de guitarra
E-------------------------------------------3---3----------------|
B-----------3-----3-5-6-5-3-6---------3-4-5-------6-5-3/5/3-6-5--|
G-2-----4-5-------------------5/7--------------------------------|
D----------------------------------------------------------------|
A----------------------------------------------------------------|
E----------------------------------------------------------------|

E-----------------------3/5-----3-----------------------3-3/5-5--|
B-----------------3-5-6-----------6-4-3/4/3---3-----5-6----------|
G-7-5/7/5-4-5-------------------------------5--------------------|
D----------------------------------------------------------------|
A----------------------------------------------------------------|
E----------------------------------------------------------------|

E-3---3/5--5-5/7/8---8-7-5-7/8-8---8-10-12---12/10/8/12-8-10/12--|
B---6------------------------------------------------------------|
G----------------------------------------------------------------|
D----------------------------------------------------------------|
A----------------------------------------------------------------|
E----------------------------------------------------------------|

(3:07)

  A5             D5          A5   E5
Y tú, pareces morir, de pasividad
  A5                      D5        A5    E5     A5
No lo ves, intenta encontrar, la razón para vivir

(De fondo la orquesta realiza lo siguiente)

E----------------------------------------------------------------|
B-17-------------------------------------------------------------|
G----19--19-19-17-16-17--19-19-17-16-----------19-17-16----------|
D------------------------------------19-----17----------19-------|
A----------------------------------------------------------------|
E----------------------------------------------------------------|

E----------------------------------------------------------------|
B--------------------------17-18-17-17-17----17------------------|
G-------16--16-16-------16----------------19---------------------|
D-17-19-----------19-17------------------------------------------|
A----------------------------------------------------------------|
E----------------------------------------------------------------|


Coro
(3:33)

(Orquesta)         (Guitarra)
  (A5)              Sentir LA pasión
E-----------------|---------------------------------------------|
B--------------15-|---------------------------------------------|
G-14--14-16-17----|------------7--------------------------------|
D-----------------|--7---------7--------7-----------------------|
A-----------------|--7---------5--------7-----------------------|
E-----------------|--5------------------5-----------------------|

  [A5]              Aquello que amas
E-----------------|---------------------------------------------|
B-----------17-15-|---------------------------------------------|
G-14--14-17-------|--------------7------------------------------|
D-----------------|--7-----------7------7-----------------------|
A-----------------|--7-----------5------7-----------------------|
E-----------------|--5------------------5-----------------------|

  [A5]              Suspiros de vida
E-----------------|---------------------------------------------|
B--------------15-|---------------------------------------------|
G-14--14-16-17----|-------------7-------------------------------|
D-----------------|--7----------7-------7-----------------------|
A-----------------|--7----------5-------7-----------------------|
E-----------------|--5------------------5-----------------------|

  (A5)              Siente LA emociooooooooooooooooooooooon
E-----------------|---------------------------------------------|
B-----------17-15-|---------------------------------------------|
G-14--14-17-------|--------------7-7-7--7-7-7--7-7-7--7-7-7-----|
D-----------------|--7-----------7-7-7--7-7-7--7-7-7--7-7-7-----|
A-----------------|--7-----------5-5-5--5-5-5--5-5-5--5-5-5-----|
E-----------------|--5------------------------------------------|

 D5               A5                  E5               E5 G5 A5
Uhhhhhhhhhhhhhhhhhhhhhhhhhhhhhhhhhhhhhhhhhhhhhhhhhhhhhhhhhhhhhhh
E---------------------------------------------------------------|
B-17/18/17-15---------------------------------------------------|
G--------------17-16-14-12-15-15/17/15-14-12--------------------|
D----------------------------------------------15-14-12-15-14-12|
A---------------------------------------------------------------|
E---------------------------------------------------------------|

                   La guitarra hace lo siguiente de fondo
E----------------|----------------------------------------------|
B----------------|----------------------------------------------|
G----------------|-----------2-4-5------------------------------|
D-14----12----15-|-7-7--7-7-------------------------------------|
A----------------|-7-7--7-7-------------------------------------|
E----------------|-5-5--5-5-------------------------------------|


(4:14)
Segundo solo de guitarra
E---------------------10////////15-10---------------------------|
B-----13-15--13----13-----------------13-12---------------------|
G-14------------16--------------------------14-12h-10p-9h-10p-12|
D---------------------------------------------------------------|
A---------------------------------------------------------------|
E---------------------------------------------------------------|

E-------------------------------------------------10------------|
B-10-12-13--12---------------------------10-12-13----12-10------|
G---------------12-14-12h-10p-9h-10p-12h-------------------12-10|
D---------------------------------------------------------------|
A---------------------------------------------------------------|
E---------------------------------------------------------------|

E---------------------------------15p--------------------15p----|
B------------------------13-15/17-----13--------13-15-17--------|
G-12-10-9/10/9----10--14-----------------14--14-----------------|
D--------------12-----------------------------------------------|
A---------------------------------------------------------------|
E---------------------------------------------------------------|

E---------------------------------------------------------------|
B-17-15-13------------------------------------------------------|
G----------14/16------------------------------------------------|
D---------------------------------------------------------------|
A---------------------------------------------------------------|
E---------------------------------------------------------------|

(4:56)
Entra la orquesta enlazando con el final del solo
E---------------------------------------------------------------|
B----------------------------------15-17------------------------|
G-14-12-------14-12-------14-16-17------------------------------|
D-------15-13-------15-13---------------------------------------|
A---------------------------------------------------------------|
E---------------------------------------------------------------|

(5:00)
(Orquesta)         (Guitarra)
  (A5)              Sentir LA pasión
E-----------------|---------------------------------------------|
B--------------15-|---------------------------------------------|
G-14--14-16-17----|------------7-7-7-7-7------------------------|
D-----------------|--7-7-7-7-7-7-7-7-7-7-7-7-7-7-7-7-7-7-7-7----|
A-----------------|--7-7-7-7-7-5-5-5-5-5-7-7-7-7-7-7-7-7-7-7----|
E-----------------|--5-5-5-5-5-----------5-5-5-5-5-5-5-5-5-5----|

  [A5]              Aquello que amas
E-----------------|---------------------------------------------|
B-----------17-15-|---------------------------------------------|
G-14--14-17-------|------------7-7-7-7-7------------------------|
D-----------------|--7-7-7-7-7-7-7-7-7-7-7-7-7-7-7-7-7-7-7-7----|
A-----------------|--7-7-7-7-7-5-5-5-5-5-7-7-7-7-7-7-7-7-7-7----|
E-----------------|--5-5-5-5-5-----------5-5-5-5-5-5-5-5-5-5----|

  [A5]              Suspiros de vida
E-----------------|---------------------------------------------|
B--------------15-|---------------------------------------------|
G-14--14-16-17----|------------7-7-7-7-7------------------------|
D-----------------|--7-7-7-7-7-7-7-7-7-7-7-7-7-7-7-7-7-7-7-7-7--|
A-----------------|--7-7-7-7-7-7-5-5-5-5-5-7-7-7-7-7-7-7-7-7-7--|
E-----------------|--5-5-5-5-5-------------5-5-5-5-5-5-5-5-5-5--|

  (A5)              Siente LA emociooooooooooooooooooooooon
E-----------------|---------------------------------------------|
B-----------17-15-|---------------------------------------------|
G-14--14-17-------|--------------7-7-7-7-7----------------------|
D-----------------|--7-7-7-7-7-7-7-7-7-7-7-7-7-7-7-7-7-7-7-7-7--|
A-----------------|--7-7-7-7-7-7-5-5-5-5-5-7-7-7-7-7-7-7-7-7-7--|
E-----------------|--5-5-5-5-5-------------5-5-5-5-5-5-5-5-5-5--|

D5               A5                  E5               E5 G5 A5
Uhhhhhhhhhhhhhhhhhhhhhhhhhhhhhhhhhhhhhhhhhhhhhhhhhhhhhhhhhhhhhhh

Orquesta y guitarra 1 (la guitarra 2 sigue con el ritmo del coro)
(5:33)
  F5         D5     F5         A5       D5  F5          D5
E---------------------------------------------------------------|
B------------------------------10-------------------------------|
G-10--9-10-9-----------9-10-12----12-10--------9-10-9-10--------|
D------------12-12--12------------------12--12-----------12-12--|
A---------------------------------------------------------------|
E---------------------------------------------------------------|

  F5          A5  D5      C5    D5       C5         D5   E5   A5 A5
E---------------------------------------------------------------|
B-------------10-------------10-------------10-11-10----------10|
G----9-10--12----12-10-10-12----12-10-10-12----------12-10-12---|
D-12------------------------------------------------------------|
A---------------------------------------------------------------|
E---------------------------------------------------------------|

Solo LA orquesta
(6:09)
                    D
E----------------------|
B-------------------15-|
G-14-16-17-14-17-14----|
D----------------------|
A----------------------|
E----------------------|

Cualquier pregunta, duda, comentario, sugerencia y/o correción,
enviénmela a mi correo cahz_3007@
y que viva el metal
Suggest correction
Give kudos to tab author, rate the tab!
1 2 3 4 5
comments
print report bad tab
guest
You may want to rate the tab now too:
select rating
Wanna post a correction for this tab? Suggest correction