Oops, an error
Loading. Please wait.

Es Por Tí Tab

115 views 1 this week
no commentswrite comment
1 2 3 4 5
3 more votes to show rating
add to favorites
launch autoscroll
font size
0
reset
how to read this tab
guitar tuner
×
Best way to learn
"Es Por Tí"
Autoscroll
slow
fast
+/-
esc
set tempo
stop
-------------------------------------------------------------------------
TABLATURA :JHONATAN RICHARD  - Hyo - Perú - Igleia - Agua Viva
-------------------------------------------------------------------------

-DIALOGO:
        - tocar bien los intros con el ritmo de la cancion.
        - escuchar bien las pausas y los tiempos.
        - esta tema lleva 2 guiatrras pero hay que ser buenos(1Guitarra).
        - el Multi-Efecto usado( "ZOOM G2.1u" )

-SIGNIFICADOS:
        - [X]  : Tocar la cuerda al aire.
        - (/)  : Slide.
        - [.]  : Pausa - Stop Segun el tiempo.
        - (br) : Bribrato.
        - (Pt.): Pitillo
        - (Ar.): Armonicos.

Intro:
(Parte 1°)
E|------------|------------|----------|-------------|------------------|
B|------------|------------|----------|-------------|------------------|
G|-7-7-7-7----|-8-8-8-8----|-5-5-5-5--|-7-7-7-7-----|-3-3-3-3-3-3-3-3--|
D|------------|------------|----------|-------------|------------------|
A|.-6-6-6-6---|--6-6-6-6---|--6-6-6-6-|--6-6-6-6----|--6-6-6-6-6-6-6-6-|
E|------------|------------|----------|-------------|------------------|

E|------------------------|
B|------------------------|
G|--X--X-X-X-X-X-X-X------|
D|-6/.5-5-5-5-5-5-5-------|
A|------------------------|
E|------------------------|

(Parte 2°)
E|------------------|--------------------------------|
B|------------------|--------------------------------|
G|-7-7-7-7--8-8-8-8-|--10-10-10-10--12--12--12--12---|
D|------------------|--------------------------------|
A|.-6-6-6-6--6-6-6-6|----8--8--8--8---10--10--10--10-|
E|------------------|--------------------------------|

E|----------------------------------|
B|----------------------------------|
G|-7-7-7-7-8-8-8-8-7-7-7-7-8-8-8-8--|
D|----------------------------------|
A|.-6-6-6-6-6-6-6-6-6-6-6-6-6-6-6-6-|
E|----------------------------------|

50----------------------------------|
----------------------------------|
-3-3-3-3-5-5-5-5-3-3-3-3-5-5-5-5--|
----------------------------------|
--6-6-6-6-6-6-6-6-6-6-6-6-6-6-6-6-|
----------------------------------|

|-------------------------------------|e
|-------------------------------------|B
 -7-7-7-7-5-5-5-5-7-7-7-7-7-7-7-7-----|G
|-------------------------------------|D
|--6-6-6-6-6-6-6-6-6-6-6-6-6-6-6-6----|A
|-------------------------------------|E

verso antes del punteo:

ACOMPAÑAMIENTO - PUNTEO (P1):

 E|-10-10/(11br)11/-/13-/15-|-15/--|
 B|-------------------------|------|
 G|-------------------------|------|
 208|-- Aki dentra (P1) ----------------
Y es por ti.......................que aun sigo

      RE5    -   RE#5       -  FA5  -  SOL5
  --------------------------------------------|
aki.......e...................................

 RE5    -   RE#5       -  FA5  -  SOL5
si te falle...................................
        LA#5
tu sigues en mi................hasta el fi...n
       G#5                        RE#5 - TOCAR(SECO).

ACOMPAÑAMIENTO - PUNTEO (A2):
  E|-----------------|------------------|
  B|-----------------|------------------|
  G|-7-7-7-7-7-7-7-7-|-8-8-8-8-8-8-8-8--|
  D|-----------------|------------------|CADA 4 VE AL FINALIZAR
  A|.-6-6-6-6-6-6-6-6|--6-6-6-6-6-6-6-6-|DENTRA UNA NOTA MAS
  E|-----------------|------------------|AGUDA
                           G|-10-10---|  quintandole
                           D|---------|los dos ultimos
                           A|---6--6--|punteos (88-66).
----------------REPETIR TODO ESTO 8 VECES(A2)---------------------
                         |--INICIA (A2)-----
................hasta el fi...n
--------------------------------------------
Eres mi todo......perdoname.....si te lastime

100ACOMPAÑAMIENTO - PUNTEO (A3):

    E|-----------------|------------------|
    B|-----------------|------------------|
    G|-3-3-3-3-3-3-3-3-|-5-5-5-5-5-5-5-5--|
    D|-----------------|------------------|
    A|.-6-6-6-6-6-6-6-6|--6-6-6-6-6-6-6-6-|
    E|-----------------|------------------|
----------------REPETIR TODO ESTO 2 VECES(A2)-

-------|-|Inicia (A3)-----------
Te neseci..to aki...

ACOMPAÑAMIENTO - PUNTEO (A4):
 E|-----------------|------------------|
 B|-----------------|------------------|
 G|-7-7-7-7-7-7-7-7-|-5-5-5-5-5-5-5-5--|
 D|-----------------|------------------|
 A|.-6-6-6-6-6-6-6-6|--6-6-6-6-6-6-6-6-|
 E|-----------------|------------------|

 E|-----------------------------------|
 B|-----------------------------------|
 G|-7-7-7-7-7-7-7-7-7-7-7-7-7-7-7-7---|
 D|-----------------------------------|
 A|.-6-6-6-6-6-6-6-6-6-6-6-6-6-6-6-6--|
 E|-----------------------------------|

|--|-INICIA (A4)---------------------------------
 y   lo dire....................................

ACOMPAÑAMIENTO - PUNTEO (P1):

E|-10-10/(11br)11/-/13-/15-|-15/--|PERO AKI YA NO RASGUEA
B|-------------------------|------|EXISTE ETRO PUNTEO
G|-------------------------|------|

          |-- Aki dentra (P1) ----------------
QUE es por ti.......................que aun sigo

      RE5  -  RE#5 -  FA5  -  SOL5
    ------------------------------------------|
aki.......e...................................
----------------------------------------------
ACOMPAÑAMIENTO - PUNTEO (P1):
EN LA FORMA DE TOCAR ESTA PARTE ES CON TECNICA
(PITILLO) Y (ARMONICOS)
PARTE (ARMONICOS)
    E|-------------------------|
    B|-66.|-6666-|-66.|-6666---|
150 G|-------------------------|
PARTE (PITILLO)
 E|-------------------------|
B|-44.|-4444-|-44.|-4444----|
 G|-------------------------|

|----INICIA (P2)-------------------------------
 RE5    -   RE#5     -  FA5  -  SOL5
Te lastimeeee.................................
         LA#5
y nunca dejare de amarte................y es por ti..
          G#5     RE#5(RASGUEO SEGUIDO).

ACOMPAÑAMIENTO - PUNTEO (P1):

 E|-10-10/(11br)11/-/13-/15-|-15/--|
 B|-------------------------|------|
 G|-------------------------|------
208|-- Aki dentra (P1) ----------------
Y es por ti.......................que aun sigo

        RE5    -   RE#5       -  FA5  -  SOL5
---------------------------------------------|
aki.......e...................................
 RE5    -   RE#5       -  FA5  -  SOL5
si te falle...................................
       LA#5
tu sigues en mi................hasta
       G#5             RE#5  - TOCAR(SECO).

FUGA (F1)
E|-------------------------------------|
B|-------------------------------------|
G|----7.7----7.7----7.7----7-7-8-7-----|
D|-55----5.55---5-55---5-55------------|
A|-------------------------------------|
E|-------------------------------------|

E|-------------------------------------|
B|-------------------------------------|
G|----3.3----3.3----3.3----3-3-5-3-----|
D|-33----3.33---3-33---3-33------------|
A|-------------------------------------|
E|-------------------------------------|

E|-------------------------------------|
B|-------------------------------------|
G|----7.7----7.7----7.7----7-7-8-7-----|
   D|-55----5.55---5-55---5-55------------|
   A|-------------------------------------|
200E|-------------------------------------|
      |--INICIO (F1)--------------------------- |
el fi..........................................n
 LA#5       LA#5         SOL#5
Te seguire hasta el fin........
 SOL#5      LA#5          LA#5
       te seguire hasta el fin.........
 SOL#5       ( SOL#5 - (RASGUEO TODO PARA ABAJO)
                             hasta el fin.........
ACOMPAÑAMIENTO - PUNTEO (P1):
  E|-10-10/(11br)11/-/13-/15-|-15/--|PERO AKI YA NO RASGUEA
  B|-------------------------|------|EXISTE ETRO PUNTEO....
  G|-------------------------|------|

      |-- Aki dentra (P1) ----------------
QUE es por ti.......................que aun sigo
          RE5    -   RE#5       -  FA5  -  SOL5
  --------------------------------------------
aki.......e...................................
----------------------------------------------
ACOMPAÑAMIENTO - PUNTEO (P1):
EN LA FORMA DE TOCAR ESTA PARTE ES CON TECNICA
PITILLO) Y (ARMONICOS)
PARTE (ARMONICOS)
 E|-------------------------|
 B|-66.|-6666-|-66.|-6666---|
 G|-------------------------|
PARTE (PITILLO)
 E|-------------------------|
 B|-44.|-4444-|-44.|-4444---|
 G|-------------------------|

  |----INICIA (P2)-------------------------------
RE5    -   RE#5       -  FA5  -  SOL5
Te lastimeeee.................................
      LA#5
y nunca dejare de amarte................y es por ti..
      G#5                 RE#5(RASGUEO SEGUIDO)

ACOMPAÑAMIENTO - PUNTEO (P1):

 E|-10-10/(11br)11/-/13-/15-|-15/--|
 B|-------------------------|------|
 G|-------------------------|------|

          |-- Aki dentra (P1) ----------------
Y es por ti.......................que aun sigo

250     RE5    -   RE#5       -  FA5  -  SOL5
  --------------------------------------------|
aki.......e...................................
 RE5    -   RE#5       -  FA5  -  SOL5
si te falle...................................
      LA#5
tu sigues en mi................hasta
       G#5               RE#5 - TOCAR(SECO).
      |--INICIO (F1)---------------------------
el fi..........................................n
Intro:
           Hasta el fin...           hasta el fin...
(Parte 1°)
E|------------|------------|----------|----------|------------------|
B|------------|------------|----------|----------|------------------|
G|-7-7-7-7----|-8-8-8-8----|-5-5-5-5--|-7-7-7-7--|-3-3-3-3-3-3-3-3--|
D|------------|------------|----------|----------|------------------|
A|.-6-6-6-6---|--6-6-6-6---|--6-6-6-6-|--6-6-6-6-|--6-6-6-6-6-6-6-6-|
E|------------|------------|----------|--------- |------------------|

AKI YA LA MUSICA BAJA EL VOLUMEN DEL SONIDOo...
SI PUEDES PUEDES HCER UN FINAL PARA OTRA CANCION
OSEA FINAL DE ESTA CANCION Y A LA VEZ UN INTRO

                        STRIKE 3 - ES POR TI
                          (ROCK CRISTIANO)
------------------------------------------------------------
TABLATURA :JHONATAN RICHARD  - Hyo - Perú -
Igleia - Agua Viva
------------------------------------------------------------
BUENO, ME DESDIPO DE TODOS USTEDES "DIOS" LOS BENDIGA-------
CUALQUIER DUDA NO SE OLVIDEN COMUNICARSE CON MIGO-----------
o tambien Y LO PRINCIPAL SOBRE ALGUN TEMA MUSICAL VISITEN
ESTA Y SU UNICA PAGINA:

                          

----------------VISITANDO EL HI5:john_unti------------------
----------------en el MySpace------0------------------------
----------------en el FaceBock-----0------------------------
----------------en el hotmail :john_unti@
----SALUDOS A TODOS LOS JOVENES DE LA IGLESIA AGUA VIVA-----
--------------------------------------------"HUANCAYO"------
-----------------------EN ESPECIAL PARA MI LIDER------------
---------------------------SERGIO GONZALES------------------
Suggest correction
Give kudos to tab author, rate the tab!
1 2 3 4 5
comments
print report bad tab
guest
You may want to rate the tab now too:
select rating
Wanna post a correction for this tab? Suggest correction