Oops, an error
Loading. Please wait.

Jamás Tab

version 1
version 1

Whole song

68 views 1 this week
no commentswrite comment
1 2 3 4 5
3 more votes to show rating
add to favorites
×
Save as Personal and add changes to this tab that will be seen only by you. Learn more ›
×
You can save this tab as Personal to edit and correct it or add notes. All changes will be seen only by you. Learn more »
save as personal
new!
launch autoscroll
font size
0
reset
how to read this tab
guitar tuner
Autoscroll
slow
fast
+/-
esc
set tempo
stop
Tuning: D A D G B e

Intro: D


    A#      D
Jamás   Jamás         X2

F                         D
Si las cosas vienen y se van
F                     D
Ya no las puedo alcanzar
F                     D
Mis manos débiles, están
F                   D
Solo me queda, ¡gritar!

Coro:
D
Si las cosas vienen y se van
F
Ya no las puedo controlar
A#                     A
Solo se que eres tu, ¡pushing me away¡
D
Ya no puedo decidir
F
Las cosas que quiero hacer
A#                    A
Solo se que eres tu ¡pushing me away¡

    A#      D
Jamás   Jamás         X2

Interludio:

   F                        D
e-------------------------------------------------|
B-------------------------------------------------|
G------0-----0-----0------------------------------|
D--------3-----3-----3----------0---3-0-----------|
A----3-----3-----3-----3------0---0-----0---------|
D--3------------------------0-------------0-------|

Todo comenzó y yo no se como
Encontraste en mi corazón
Tu imagen no la puedo sacar ya
Tu sonrisa la llevo marcada en mí ser
En cada sueño veo que estas junto a mí
Y con tus manos acaricias mi dolor
Cuando despierto deseo que estés ahí
Y si te tardas mas no podré resistir

Coro:

    A#      D
Jamás   Jamás         X2

Interludio:

D-F-A#-A      X2


    A#      D
Jamás   Jamás         X2

Solo: A#-A

e|---13-13-13-12-12---------------|---15-15-15-13-13---------------|
B|-----------------10-10-10-------|------------------10-10-10------|
G|--------------------------------|--------------------------------|
D|---------------------------(X4)-|---------------------------(X2)-|
A|--------------------------------|--------------------------------|
D|--------------------------------|--------------------------------|

|--17-17-17-15-15---------------|
|-----------------10-10-10------|
|-------------------------------|
|--------------------------(X2)-|
|-------------------------------|
|-------------------------------|


    A#      D
Jamás   Jamás         X2

Final: D

ACORDES:

e|--------------------|
B|--------------------|
G|--------------------|
D|--3---0---7--8------|
A|--3---0---7--8------|
D|--3---0---7--8------|
    F   RE  A  A#


Nota: Esta es mi primera transcripción y realmente es excelente,
saludos a la Segunda Iglesia del Nazareno en Tapachula Chiapas México,
y al grupo de música de Reskt 3:16 al cual pertenezco,
dedicada a Ángela una chava muy linda que acabo de conocer.
Para todos ustedes Nimrod.
Suggest correction
Give kudos to tab author, rate the tab!
1 2 3 4 5
comments
print report bad tab
guest
Wanna post a correction for this tab? Suggest correction