Oops, an error
Loading. Please wait.

Jamás Tab

version 2
version 2

Whole song

38 views 3 this week
no commentswrite comment
1 2 3 4 5
3 more votes to show rating
add to favorites
×
Save as Personal and add changes to this tab that will be seen only by you. Learn more ›
×
You can save this tab as Personal to edit and correct it or add notes. All changes will be seen only by you. Learn more »
save as personal
new!
launch autoscroll
font size
0
reset
how to read this tab
guitar tuner
Autoscroll
slow
fast
+/-
esc
set tempo
stop
Interprete: strike3

Canción: jamás

Álbum: vivir así


La afinación de la guitarra es drop (sexta
Cuerda afinada en ?D? o ?Re?).


e---------|
B---------|
G---------|
D---0-0---|x8
A---0-0---|
D---0-0---|
    P.M.

P.M.= palm mute

                   Jamás?

e----------------|-------------------------|
B----------------|-------------------------|
G----------------|-------------------------|
D--0-0--0--0--0--|--8-------0-------8------|
A--0-0--0--0--0--|--8--x16--0--x16--8--x16-|
D--0-0--0--0--0--|--8-------0-------8------|


e------------|-------------------------------|
B------------|-------------------------------|
G------------|-------------------------------|
D--0-x-------|--0-0------0-0--0---0-0--0--0--|
A--0-x--x10--|--0-0--x8--0-0--0---0-0--0--0--|
D--0-x-------|--0-0------0-0--0---0-0--0--0--|
                P.M.     P.M.     P.M.

 X = opacar acorde

Arpegio (guitarra limpia)

e------------------------------------------------|
B------------------------------------------------|
G------------------------------------------------|
D--------5-----------5-------0-x------0-0--0--0--| x3
A-----3-----3-----3-----x2---0-x--x9--0-0--0--0--|
D--3-----------3-------------0-x------0-0--0--0--|
                                      P.M.


e-------------------------------------------------|
B-------------------------------------------------|
G-------------------------------------------------|
D--------5-----------5------0-x------0-0--0--0-0--|
A-----3-----3-----3-----x2--0-x--x9--0-0--0--0-0--|
D--3-----------3------------0-x------0-0--0--0-0--|
                                     P.M.    P.M.

Coro:

 Si las cosas vienen y se van?

e---------------------------------|
B---------------------------------|
G---------------------------------|
D--0-------3-------8-------7------|  x2
A--0--x8---3--x8---8--x8---7--x8--|
D--0-------3-------8-------7------|


e---------------------------|
B---------------------------|
G---------------------------|
D--8--------0-------8-------|
A--8--x16---0--x16--8--x16--|
D--8--------0-------8-------|


e------------|-------------------------------|
B------------|-------------------------------|
G------------|-------------------------------|
D--0-x-------|--0-0------0-0--0---0-0--0--0--|
A--0-x--x10--|--0-0--x8--0-0--0---0-0--0--0--|
D--0-x-------|--0-0------0-0--0---0-0--0--0--|
                P.M.     P.M.     P.M.

Arpegio intermedio:

e---------------------------|
B---------------------------|
G---------------------------|
D--------5-----------5------|  x2
A-----3-----3-----3---------|
D--3-----------3------------|


e----------------------------|
B----------------------------|
G----------------------------|
D--------2--------3p2--------| x2
A-----0--------0-------0-----|
D--0--------0-------------0--|

Arpegio principal:

e------------------------------|----------------------|
B------------------------------|----------------------|
G------------------------------|----------------------|
D-----5------5------5------x2--|-----2------3p2-----x2| x5
A---3---3------3------3--------|---0------0-----0-----|
D-3-------3------3------3------|-0------0----------0--|


Coro:

 Si las cosas vienen y se van?

e---------------------------------|
B---------------------------------|
G---------------------------------|
D--0-------3-------8-------7------|  x2
A--0--x8---3--x8---8--x8---7--x8--|
D--0-------3-------8-------7------|


e---------------------------|
B---------------------------|
G---------------------------|
D--8--------0-------8-------|
A--8--x16---0--x16--8--x16--|
D--8--------0-------8-------|


e------------------------------------------------------|
B------------------------------------------------------|
G------------------------------------------------------|
D--0-----0------3-----3------8------8------7-----7-----|
A--0-x5--0-x5---3-x5--3-x5---8-x5---8-x5---7-x5--7-x5--|
D--0-----0------3-----3------8------8------7-----7-----|


e------------------------------------------------|
B------------------------------------------------|
G------------------------------------------------|
D--0-----0------3-----3------8------8------7-----|
A--0-x5--0-x5---3-x5--3-x5---8-x5---8-x5---7-x8--|
D--0-----0------3-----3------8------8------7-----|


e-------------------|
B-------------------|
G-------------------|
D--8--------0-------|
A--8--x16---0--x16--|
D--8--------0-------|


Esto lo hace la guitarra de fondo durante el solo.

e----------------------------------------------|
B----------------------------------------------|
G----------------------------------------------|
D--8--------0--------8--------0--------8-------|
A--8--x16---0--x16---8--x16---0--x16---8--x16--|
D--8--------0--------8--------0--------8-------|


Solo:


e--13--13--13--13--12--12---------------15--15--15--15----
B--------------------------10--10-------------------------
G----------------------------------x4---------------------
D---------------------------------------------------------
A---------------------------------------------------------
D---------------------------------------------------------


--13--13---------------17--17--17--17--15--15-------------
----------10--10-------------------------------13--13-----
------------------x2-----------------------------------x2-
----------------------------------------------------------
----------------------------------------------------------
----------------------------------------------------------


---------------------------------------------------------|
---------------------------------------------------------|
--14h15p14--14h15p14-----14h15-14h15-14h15--14v----------|
---------------------------------------------------------|
---------------------------------------------------------|
---------------------------------------------------------|

V= dejar vibrar la nota

Esto lo hace la guitarra de fondo al acabar el solo.

e------------|----------------------|
B------------|----------------------|
G------------|----------------------|
D--0-x-------|--0-0-------0---(0)---|      FIN.
A--0-x--x10--|--0-0--x8---0---(0)---|
D--0-x-------|--0-0-------0---(0)---|
                P.M.     P.M.


 A#    D      A#    D
Jamás jamás! Jamás jamás!

 F                        D
Si las cosas vienen y se van
 F                    D
Yo no las puedo alcanzar
 F                  D
Mis manos débiles están
 F                D
Solo me queda gritar!

(Coro)
 D
Si las cosas vienen y se van
 F
Yo no las puedo controlar
 A#
Solo se que eres tu
 A
Pushing me away!


 D
Ya no puedo yo decidir
 F
Las cosas que quiero hacer
 A#
Solo se que eres tu
 A
Pushing me away!

 A#    D      A#    D
Jamás jamás! Jamás jamás!

 F ; D x2

 F
Todo comenzó
                                   D
y ya no se como tu entraste en mi corazón
                                  F
Tu imagen no la puedo sacar ya de mi
                                   D
Tu sonrisa la llevo marcada en mi ser

   F
En cada sueño veo que estas junto a mi
   D
Y con tus manos acaricias mi dolor
     F
Cuando despierto deseo que estés ahí
   D
y si te tardas mas no podré resistir


(Coro)

 D
Si las cosas vienen y se van
 F
Yo no las puedo controlar
 A#
Solo se que eres tu
 A
Pushing me away!

 D
Ya no puedo yo decidir
 F
Las cosas que quiero hacer
 A#
Solo se que eres tu
 A
Pushing me away!

 A#    D      A#    D
Jamás jamás! Jamás jamás!

D ; F ; A# ; A  x2

 A#    D
Jamás jamás!

A# ; D x2
(Solo)


 A#    D
Jamás jamás!

Pues aquí les dejamos esta muy buena rola de strike3,
esperamos que les convenza
por q no podemos hacer un mejor trabajo que este.
Se lo dedicamos primeramente a Dios y también a Rebek
x parte del panda x que la quiere mucho
y a Tanis x mi parte ya que ella es mi inspiración!

                       Jonathan:   jonathan_omd@
                          Panda:   windu2_6@
Suggest correction
Give kudos to tab author, rate the tab!
1 2 3 4 5
comments
print report bad tab
guest
Wanna post a correction for this tab? Suggest correction