Oops, an error
Loading. Please wait.

Te Amo Más Tab

46 views 1 this week
no commentswrite comment
1 2 3 4 5
3 more votes to show rating
add to favorites
launch autoscroll
font size
0
reset
how to read this tab
guitar tuner
×
Best way to learn
"Te Amo Más"
Autoscroll
slow
fast
+/-
esc
set tempo
stop
                  Bb                  G#

e-----------------6---|---------------4-----|
B-----------------6---|---------------4-----|
G-----------------7---|---------------5-----|
D-----------------8---|---------------6-----|
A-------8-6-------8---|-----8-6-------6-----|
D---6-9-----9-6-0-6---|-6-9-----9-6-0-4-----|

                  D#

e-----------------6---|
B-----------------8---|
G-----------------8---|
D-----------------8---|
A-------8-6-------6---|
D---6-9-----9-6-0-6---|

Toda la cancion es igual
solo cambia el ritmo cuando dice: "Te amo mas.... "
pero son as mismas notas
Suggest correction
Give kudos to tab author, rate the tab!
1 2 3 4 5
comments
print report bad tab
guest
You may want to rate the tab now too:
select rating
Wanna post a correction for this tab? Suggest correction