Oops, an error
Loading. Please wait.

Niño De Sueños tab

by Stygma
18 views 1 this week
no commentswrite comment
1 2 3 4 5
3 more votes to show rating
add to favorites
×
Save as Personal and add changes to this tab that will be seen only by you. Learn more ›
×
You can save this tab as Personal to edit and correct it or add notes. All changes will be seen only by you. Learn more »
launch autoscroll
font size
0
reset
how to read this tab
guitar tuner
edit
Autoscroll
slow
fast
+/-
esc
set tempo
stop
'ESTA CANCION ESTA DEDICADA A TODOS AQUELLOS INOCENTES QUE HAN SIDO 
        PRIVADOS DE LA VIDA SIN SIQUIERA HABER VISTO LA LUZ'


INTRO:

riff (1)

    C          Em           Am            
e|------------------------------------------------------------|
B|------1-----------0-------0h1-----1-----1-----1-------------|
G|----0---0-------0---0---------2-----------2-----------------|
D|--------------------------------2-----------0---------------|
A|--3-----------2-----------0---------------------------------|
E|----------------------------------------3-------------------|

    F          G           C
e|------1-----------3-----------------3--------------------||
B|--------1-----------3---------1h3------------------------||
G|----2-----------0-----------0-----0----------------------||
D|---------------------------------------------------------||
A|--------------------------3------------------------------||
E|--1-----------3------------------------------------------||


riff (2)

    C           Em          Am
e|------------------------------------------------------------|
B|------1-----------0-------0h1-----1-----1-----1-------------|
G|----0---0-------0---0---------2-----------2-----------------|
D|--------------------------------2-----------0---------------|
A|--3-----------2-----------0---------------------------------|
E|----------------------------------------3-------------------|

    F          G           C
e|------1-----------3--------------------------------------||
B|--------1-----------3---------1h3---0h1------------------||
G|----2-----------0-----------0-----0----------------------||
D|---------------------------------------------------------||
A|--------------------------3------------------------------||
E|--1-----------3------------------------------------------||


VERSOS:

riff (1)
Fruto de un supuesto amor fuiste consevido en una noche mas de pasion que de amor
riff (2)
No deseado por tus padres rechazado truncada fue tu vida fuiste asesinado
riff (1)
Persona ya eras desde el principio aunque criminales dicen que no es asi
riff (2)
REgalo de Dios la vida de un infante, sacrilegio fue por la vida quitarte


riff (3)
    Am         C          F           E
e|-----------------------------------------------------||
B|------1----------1-----------1-----------0-----------||
G|----2---2------0---0-------2---2-------1---1---------||
D|-----------------------------------------------------||
A|--0----------3---------------------------------------||
E|-------------------------1-----------0---------------||


riff (4)
    Am         C           B7
e|---------------------------------2----------------2-----||
B|------1----------1-----------------0------------0-------||
G|----2---2------0---0---------2-------2--------2---------||
D|---------------------------1---1-------1----1-----------||
A|--0----------3-----------2----------------2-------------||
E|--------------------------------------------------------||


PRECORO:

riff (3)
Tu madre maldita sea su estampa 
con un carnicero fue a hacer el trabajo
fuiste desmembrado sufriste dolor
riff (4)
inocente niño terrible 
riff (1)    riff (2)
dolor.......


VERSO:
Entre un rio de sangre saliste en pedazos y en una cubeta fuiste colocado
tu alma pura y limpia no vino al mundo se cometio con tigo un pegado inmundo
y tu padre despues muy arrepentido quizo aunque no pudo enmendar su error
y la mujer de la que pudiste haber nacido sufrio horriblemente por una infeccion.


PRECORO:
Y ahora vive alli encerrada 
la oportunidad de ser madre perdio 
y aunque lo desea con toda su alma
no puede olvidar que 
te asesino...........


CORO:
C          Em       Am       F
Eres para ella un niño de sueños 
      C           Em         Am         G
de su mente nunca te podra sacar
C       Em         Am     F
pobre mujer perdio la cabeza 
      C       Em    Am       G         
en un tonto momento de debilidad


INTRO


VERSO:
Entre un rio de sangre saliste en pedazos y en una cubeta fuiste colocado
tu alma pura y limpia no vino al mundo se cometio con tigo un pegado inmundo
y tu padre despues muy arrepentido quizo aunque no pudo enmendar su error
y la mujer de la que pudiste haber nacido sufrio horriblemente por una infeccion.


PRECORO:
Y ahora vive alli encerrada 
la oportunidad de ser madre perdio 
y aunque lo desea con toda su alma
no puede olvidar que 
te asesino...........

CORO:
Eres para ella un niño de sueños 
de su mente nunca te podra sacar
pobre mujer perdio la cabeza 
en un tonto momento de debilidad   [BIS]


esta la primera tablatura que mando ojala les llegue, 
aunque no estoy seguro de que sea si se olle bien 
esta paja solo es de practicar y hacer los cambios rapido
que bueno que les guste el rock chapin.........

            
            
Suggest correction
Creating personal tab
Creating personal tab
You can edit any tab online and save it as your Personal.

You can edit, replace or remove any tab part or add personal notes – all changes will be seen only by you.

Personal tabs can be accessed anytime from any device, even offline.
Learn more »
Give kudos to tab author, rate the tab!
1 2 3 4 5
comments
print report bad tab
guest
Wanna post a correction for this tab? Suggest correction