Oops, an error
Loading. Please wait.

Cerca De Mí Tab

version 2
version 2

Whole song

104 views 1 this week
no commentswrite comment
1 2 3 4 5
3 more votes to show rating
add to favorites
launch autoscroll
font size
0
reset
how to read this tab
guitar tuner
×
Best way to learn
"Cerca De Mí"
Autoscroll
slow
fast
+/-
esc
set tempo
stop
TWITTER: @JemfMusic

e)------------------------------------
b)------------------------------------
g)-6-6-6-9-9--6-6-6-9-9--9-9-9-9-9-9--
d)------------------------------------
a)------------------------------------
e)------------------------------------

lo primero 2 veces

e)------------------------------------------------
b)----------------------------------------------
g)------------------------------------------------
d)-------8-8-8---8-8-8--------4-4-4--2-2-2-1-1--
a)---9-9----------------------------------------
e)-----------------------------------------------

en el paron de los violines

e)------------------------------------
b)--15-14-12-10s12---14-12-10--8s10---
g)------------------------------------
d)------------------------------------
a)------------------------------------
e)------------------------------------


LA 2 vez

e)------------12s14-------------10s12--
b)--15-14-12----------14-12-10---------
g)-------------------------------------
d)-------------------------------------
a)-------------------------------------
e)-------------------------------------

final del violin con guitarra

e)-----------------------------------
b)----9-10-12--10-----9-10-12----10--
g)-----------------------------------
d)-----------------------------------
a)-----------------------------------
e)-----------------------------------

youtube mi canal
Suggest correction
Give kudos to tab author, rate the tab!
1 2 3 4 5
comments
print report bad tab
guest
You may want to rate the tab now too:
select rating
Wanna post a correction for this tab? Suggest correction