Oops, an error
Loading. Please wait.

El Héroe De La Humanidad Tab

185 views 1 this week
no commentswrite comment
1 2 3 4 5
3 more votes to show rating
add to favorites
launch autoscroll
font size
0
reset
how to read this tab
guitar tuner
×
Best way to learn
"El Héroe De La Humanidad"
Autoscroll
slow
fast
+/-
esc
set tempo
stop
Al principio de la canción se hace RELEASE desde B hasta tab 1...

Intro:

E|----------------------------|
B|----------------------------|
G|----------4s6s4---2---------|   X2  ...Tab 1
D|--4---2---4s6s4---2---------|
A|--4---2---------------4-----|
E|----------------------4-----|

E|----------------------------|
B|------7--9s10---9-----------|
G|--7------9------9-----------|   X2 ...Tab 2
D|--7---7-------------11---12p|
A|-------------------------12p|
E|----------------------------|

Tu Presencia, es lo que necesitamos...
E|----------------------------|
B|----------------------------|
G|----------4s6s4---2---------|   X2
D|--4---2---4s6s4---2---------|
A|--4---2---------------4-----|
E|----------------------4-----|

Conocerte, es nuestra pasión...

E|----------------------------|
B|------7--9s10---9-----------|
G|--7------9------9-----------|   X2
D|--7---7-------------11---12p|
A|-------------------------12p|
E|----------------------------|

Con toda nuestra vida, Te Amamos...

E|----------------------------|
B|----------------------------|
G|----------4s6s4---2---------|   X2
D|--4---2---4s6s4---2---------|
A|--4---2---------------4-----|
E|----------------------4-----|

Como no hacerlo, con todo lo que hiciste Tu...

E|----------------------------|
B|------7--9s10---9-----------|
G|--7------9------9-----------|   X2
D|--7---7-------------11---12p|
A|-------------------------12p|
E|----------------------------|

Viniste a servir y dar tu vida en rescate por muchos...

E|-----------------------------------------------
B|-9-9-9---12-12-12---9-9---10-10-10---12-12-12--
G|-----------------------------------------------

-----------------------------------------------------------|
-10-10----------10-10-10-------------------10-10-10--------|
-------11-11-11-----------11-11---11-11-11-----------11-11-|

Sobre Ti recayó el Castigo precio de nuestra Paz...

E|-----------------------------------------------
B|-9-9-9---12-12-12---9-9---10-10-10---12-12-12--
G|-----------------------------------------------

----------------------|
-10-10----------------|
-------11-x15---------|


Dios, Tu eres la Luz, ÉL Héroe de la Humanidad,

E|--------------|
B|-10-9-7-9--X6-|
G|--------------|

El gran yo soy...

                  E|-9-9-9-10-7-7-7-7-|
                  B|--------------|
                  G|--------------|

Dios, ÉL Consolador, que habita en nuestro Corazón,

E|--------------|
B|-10-9-7-9--X6-|
G|--------------|

ÉL ayudador                           Esta Aquí...

                  E|-9-9-9-10-7-7-7-|
                  B|--------------|
                  G|--------------|

(Tab 1)
E|----------------------------|
B|----------------------------|
G|----------4s6s4---2---------|   X2  ...Tab 1
D|--4---2---4s6s4---2---------|
A|--4---2---------------4-----|
E|----------------------4-----|

Hacemos PALM MUTE en Fm

Tu Presencia es lo que necesitamos

E|----------------------------|
B|----------------------------|
G|----------4s6s4---2---------|   X1
D|--4---2---4s6s4---2---------|
A|--4---2---------------4-----|
E|----------------------4-----|

Conocerte es nuestra pasion

E|----------------------------|
B|------7--9s10---9-----------|
G|--7------9------9-----------|   X2 ...Tab 2
D|--7---7-------------11---12p|
A|-------------------------12p|
E|----------------------------|

Con toda nuestra vida, te amamos

Tab 1... X2

Como no hacerlo, con todo lo que hiciste tuuu

Tab 2... X2

Viniste a servir y dar tu vida en rescate por muchos...

E|-----------------------------------------------
B|-9-9-9---12-12-12---9-9---10-10-10---12-12-12--
G|-----------------------------------------------

-----------------------------------------------------------|
-10-10----------10-10-10-------------------10-10-10--------|
-------11-11-11-----------11-11---11-11-11-----------11-11-|

Sobre Ti recayó el Castigo precio de nuestra Paz...

E|-----------------------------------------------
B|-9-9-9---12-12-12---9-9---10-10-10---12-12-12--
G|-----------------------------------------------

----------------------|
-10-10----------------|
-------11-x15---------|

Dios, Tu eres la Luz, ÉL Héroe de la Humanidad,

E|--------------|
B|-10-9-7-9--X6-|
G|--------------|

El gran yo soy...

                  E|-9-9-9-10-7-7-7-7-|
                  B|-----------------|
                  G|-----------------|

Dios, ÉL Consolador, que habita en nuestro Corazón,

E|--------------|
B|-10-9-7-9--X6-|
G|--------------|

ÉL ayudador...                    Esta Aquí...

             E|-9-9-9-10-7-7-7---|
             B|------------------|
             G|------------------|

Solo:

E|---------------------------------|
B|----------14---------------------|
G|---------------------------------|
D|---7-9s11-----11-7---------------|
A|-9-----------------9-7---7-------|
E|---------------------------9-7-5-|

E|---------------------------------12-12-12---14-14-14-14-|
B|-10-10-10---12-12-12---14-14-14-----------------|

E|---------17-16-14---17-14---------------------------------------------|
B|-----------------17------17-15-14--15-14------------------------------|
G|---------------------------------16-----16-14-13--14-13---------------|
D|------------------------------------------------16-----16-14----------|
A|------------------------------------------------------------17-16-----|
E|------------------------------------------------------------------17--|

Dios, Tu eres la Luz, ÉL Héroe de la Humanidad El gran yo sooooooy

Dios, El consolador, que habita en nuestro Corazon, El Ayudadoooor

E|-9-----|        E|-9-----|           E|--------|       E|-12-14x7-12-12-12-|
B|--10s5-|        B|--10s5-|           B|-5-9-10-|       B|-12---------------|


Dios, Tu eres la Luz, ÉL Héroe de la Humanidad,

E|--------------|
B|-10-9-7-9--X6-|
G|--------------|

El gran yo soy...

                  E|-9-9-9-10-7-7-7-7-|
                  B|-----------------|
                  G|-----------------|

Dios, ÉL Consolador, que habita en nuestro Corazón,

E|--------------|
B|-10-9-7-9--X6-|
G|--------------|

ÉL ayudador...                    Esta Aquí...

             E|-9-9-9-10-7-7-7-7-|
             B|------------------|
             G|------------------|


(Hacemos el Tab 1... pero a la segunda parte le agregamos un rift)

E|----------------------------|
B|----------------------------|
G|----------4s6s4---2---------|   Tab 1
D|--4---2---4s6s4---2---------|
A|--4---2---------------4-----|
E|----------------------4-----|

E|--------------------------
B|--4---2---4s6s4----5---5---5---7---7--|
G|--4---2---4s6s4---6---6---6--------6--|
D|------------------6-------------------|
A|--------------------------------------|
E|--------------------------------------|

(Una Cancion muy Chevere de mi iglesia,El Lugar de Su Presencia
que en mi servicio Su Presencia Kids la empezamos a Cantar,
y la saque una tarde porque de Verdad la cancion es muy buena,
Saludos desde Bogota, Si tienen Dudas de la Cancion,
algo que arreglar o si quieren que Suba otra... Mail: sebcas_9@


Un abrazo y Bendiciones
Sebastián Castañeda Olaya
Suggest correction
Give kudos to tab author, rate the tab!
1 2 3 4 5
comments
print report bad tab
guest
You may want to rate the tab now too:
select rating
Wanna post a correction for this tab? Suggest correction