Oops, an error
Loading. Please wait.

Espíritu Santo Tab

version 1
version 1

Whole song

208 views 1 this week
no commentswrite comment
1 2 3 4 5
3 more votes to show rating
add to favorites
launch autoscroll
font size
0
reset
how to read this tab
guitar tuner
×
Best way to learn
"Espíritu Santo"
Autoscroll
slow
fast
+/-
esc
set tempo
stop
INTRO
|-----------7/------9---7/----9---7---|
|6/7---7/------9---7/----9---7---|
|7/8-----------------------------|
|8/9-----------------------------|
|-------------------------------------|
|-------------------------------------|

 |       |       |       |        |       |       |       |
|------6-------9/--6-------------|------4-------------------------|
|------7-------9/--7-------------|------4-----------7-------------|
|------------------------6/8/6---|------4-------6/8---8/6/--4-----|
|9/8---------------------------8-|6-------------------6-4-|
|--------------------------------|--------------------------------|
|--------------------------------|--------------------------------|

 |       |       |       |        |       |       |       |
|--------------------------------|------7-------9---7-----9---7---|
|------5---------------7---------|------7-------9---7-----9---7---|
|------------4---------------6---|--------------------------------|
|6---------------8---------------|8/9---------------------|
|--------------------------------|--------------------------------|
|--------------------------------|--------------------------------|

 |       |       |       |        |       |       |       |
|------6-------9---6-------------|------4-------------------------|
|------7-------9---7-------------|------4-----------7-------------|
|------------------------6/8/6---|------4-------6/8---8/6/--4-----|
|9/8---------------------------8-|6-------------------6-4-|
|--------------------------------|--------------------------------|
|--------------------------------|--------------------------------|

 |       |       |       |        |       |       |       |
|--------------------------------|------------9-------------------|
|------5---------------7---------|--------------------------------|
|------------4---------------6---|------8-------------------------|
|6---------------8---------------|9-----------------------|
|--------------------------------|--------------------------------|
|--------------------------------|--------------------------------|

 |       |       |       |        |       |       |       |
|------------9-------------------|------4-------------------------|
|--------------------------------|------------4-------------------|
|------6-------------------------|4-------------------------------|
|8-------------------------------|------------------------|
|--------------------------------|--------------------------------|
|--------------------------------|--------------------------------|

 |       |       |       |        |       |       |       |
|--------------------------------|------------9-------------------|
|------5---------------7---------|--------------------------------|
|------------4---------------6---|------8-------------------------|
|6---------------8---------------|9-----------------------|
|--------------------------------|--------------------------------|
|--------------------------------|--------------------------------|

 |       |       |       |        |       |       |       |
|------------9-------------------|------4-------------------------|
|--------------------------------|------------4-------------------|
|------6-------------------------|4-------------------------------|
|8-------------------------------|------------------------|
|--------------------------------|--------------------------------|
|--------------------------------|--------------------------------|

 |       |       |       |        |       |       |       |
|--------------------------------|------------9-------------------|
|------5---------------7---------|--------------------------------|
|------------4---------------6---|------8-------------------------|
|6---------------8---------------|9-----------------------|
|--------------------------------|--------------------------------|
|--------------------------------|--------------------------------|

 |       |       |       |        |       |       |       |
|------------9-------------------|------4-------------------------|
|--------------------------------|------------4-------------------|
|------6-------------------------|4-------------------------------|
|8-------------------------------|------------------------|
|--------------------------------|--------------------------------|
|--------------------------------|--------------------------------|

 |       |       |       |        |       |       |       |
|--------------------------------|--------------------------------|
|------5---------------7---------|--------------------------------|
|------------4---------------6---|--------------------------------|
|6---------------8---------------|------------------------|
|--------------------------------|--------------------------------|
|--------------------------------|--------------------------------|


   B
Te anhelo

   F#
te deseo

   C#m
ven camina junto a mí.

      E      F#
Tú me puedes entender

        B
Consolador.

       F#
Sumérgeme

       C#m
inúndame de ti.

       E                  F#
Quiero llevar tu color en mí.

       B
Espíritu

      F#
inúndame de ti.

         C#m
Quiero estar en ti.

       E           F#
Que me guíes en mi caminar.

CORO

B
Gracias por estar aquí,

             F#
por estar en mí,

                D#m      G#m
sosteniéndome, ayudándome,


Consolador,

E       F#
Ayudador,

B
una vez más.

F#                G#m
una vez más tú en mí,

         E      F#
ayudándome.

CORTES
|--------------------------------|
|--12----------------------------|
|11--11-13--9-11-9----------|
|-------------------13--9--------|
|--------------------------------|
|--------------------------------|
Suggest correction
Give kudos to tab author, rate the tab!
1 2 3 4 5
comments
print report bad tab
guest
You may want to rate the tab now too:
select rating
Wanna post a correction for this tab? Suggest correction