Oops, an error
Loading. Please wait.

Río Paraná Tab

by Suarez
28 views 1 this week
no commentswrite comment
1 2 3 4 5
3 more votes to show rating
add to favorites
×
Save as Personal and add changes to this tab that will be seen only by you. Learn more ›
×
You can save this tab as Personal to edit and correct it or add notes. All changes will be seen only by you. Learn more »
save as personal
new!
launch autoscroll
font size
0
reset
how to read this tab
guitar tuner
Autoscroll
slow
fast
+/-
esc
set tempo
stop
Intro:

B11           D#m2        G#m
|---7-----7------6-----6|----4-6-4-4------4-6-4-4|
|---7-----7------7-----7|----4-4-4-4------4-4-4-4|
|---8-----8---8--8--8--8|----4-4-4-4------4-4-4-4|
|9--9--9--9---8--8--8--8|-6--6-6-6-6---6--6-6-6-6|
|9-----9--9---6-----6--6|-6------6-6---6------6-6|
|7-----7--7------------6|-4------4-4---4------4-4|


B11           D#m2        G#m
|---9-----7------6-----6|----4-6-4-4------4-6-4-4|
|---7-----7------7-----7|----4-4-4-4------4-4-4-4|
|---8-----8---8--8--8--8|----4-4-4-4------4-4-4-4|
|9--7--9--9---8--8--8--8|-6--6-6-6-6---6--6-6-6-6|
|9-----9--9---6-----6--6|-6------6-6---6------6-6|
|7-----7--7------------6|-4------4-4---4------4-4|


B11      D#m2       G#m
 Adios,   adios.

B11       D#m2       G#m
 Me voy,   me voy.

B                   D#m
Sigo remontando rio arriba en un barco que en la

G#m                        G       F#     B    G  F#  B11   G  F#
proa lleva el nombre de tu nombre rio paraná.

B        D#m            Bbm    E
 Cambió,   cambió,  cambió,

B             D#m       Bbm    E
 cambió,  cambió,   cambió,

E        B    Em       B   Em       B     Em
 rio paraná,   rio paraná,  rio paraná.


B11      D#m2       G#m
 Mejor,    mejor.

B11      D#m2       G#m
 Jamás,    jamás.

B                   D#m
Sigo remontando rio arriba en un barco que en la

G#m                        G       F#     B11   G  F#  B11   G  F#
proa lleva el nombre de tu nombre rio paraná.

B        D#m           Bbm     E
 Siguió,   siguió,  siguió,

B            D#m       Bbm     E
 siguió,  siguió,  siguió.


B D# G#m (x2)


Solo

  B         D#      G#m
|-------------------------------------------|
|---4---4-----4---4----4---4----------------|
|-4---6---6/0---6--------6------------------|
|-------------------6--------6-6^7^6-6/5/4--|
|-------------------------------------------|
|-------------------------------------------|

  B         D#      G#m
|-------------------------------------------|
|-------4-----4---4----4--------------------|
|-4-4-6---6/0---6--------6-4-6^7^6-4--------|
|-------------------6----------------6/5/4--|
|-------------------------------------------|
|-------------------------------------------|


B                   D#m
Sigo remontando rio arriba en un barco que en

G#m                           G       F#      B11  G  F#  B11  G  F#
la proa lleva el nombre de tu nombre rio paraná.

B        D#m            Bbm    E
 Cambió,   cambió,  cambió,

B             D#m       Bbm    E
 cambió,  cambió,   cambió,

E        B    Em       B   Em       B   Em        B  Em  B
 rio paraná,   rio paraná,  rio paraná,  rio paraná.


Final

  Em              B
|-------------------------|
|-------------------------|
|---4-6-6^7^6-4-----------|
|-5-------------5/4-------|
|-------------------------|
|-------------------------|


  B11       D#m2       D#m         B          E          G

|--7--|    |--6--|    |--2--|    |--2--|    |--0--|    |--3--|
|--7--|    |--7--|    |--4--|    |--4--|    |--0--|    |--3--|
|--8--|    |--8--|    |--3--|    |--4--|    |--1--|    |--4--|
|--9--|    |--8--|    |--4--|    |--4--|    |--2--|    |--5--|
|--9--|    |--6--|    |--x--|    |--2--|    |--2--|    |--5--|
|--7--|    |--6--|    |--x--|    |--x--|    |--0--|    |--3--|


  F#         Bbm        D#         G#m        Em

|--2--|    |--2--|    |--3--|    |--4--|    |--0--|
|--2--|    |--3--|    |--4--|    |--4--|    |--0--|
|--3--|    |--4--|    |--3--|    |--4--|    |--0--|
|--4--|    |--4--|    |--5--|    |--6--|    |--2--|
|--4--|    |--2--|    |--x--|    |--6--|    |--2--|
|--2--|    |--x--|    |--x--|    |--4--|    |--0--|


Recomiendo este disco de Suarez...

Por Walter
Suggest correction
Give kudos to tab author, rate the tab!
1 2 3 4 5
comments
print report bad tab
guest
Wanna post a correction for this tab? Suggest correction