Oops, an error
Loading. Please wait.

Camino De Una Dirección Tab

139 views 1 this week
no commentswrite comment
1 2 3 4 5
3 more votes to show rating
add to favorites
launch autoscroll
font size
0
reset
how to read this tab
guitar tuner
Autoscroll
slow
fast
+/-
esc
set tempo
stop
Help us to improve Ultimate-Guitar.com Take our survey!
×
INTRO

e----------------------------------------------------
b----------------------------------------------------
g-9--------5--------2--[----PM----]7-----------------   x4
d-9--------5--------2--------------7-----------------
a-7--5-7-5-3--2-3-2-0----0-2-3-2-0-5--5-3-2-3-2-0----
e----------------------3-----------------------------


VERSO


  Em              C            Am                D
e------------------------------------------------------------------
b------------------------------------------------------------------
g-9[-----PM--------]5[----PM------]-2[------PM---------]7
d-9-9-9-9-9-9-9-9-9-5-5-5-5-5-5-5-5-2-2-2-2-2-2-2-2-2-7-7-7-7-7-7-7
a-7-7-7-7-7-7-7-7-7-3-3-3-3-3-3-3-3-0-0-0-0-0-0-0-0-0-5-5-5-5-5-5-5
e------------------------------------------------------------------
esto es una confecion,         y ahora que el esta ausente.....


pre ESTRIBILLO


  Em     C       Am           D
e----------------------------------------------------
b----------------------------------------------------
g-9--------5--------2--[----PM----]7-----------------   X2
d-9--7-9-7-5--4-5-4-2--------------7-----------------
a-7--5-7-5-3--2-3-2-0----0-2-3-2-0-5--5-3-2-3-2-0----
e----------------------3-----------------------------
dentro de un callejon  poco a poco de repente........


ESTRIBILLO

          G    D    C            G    D    Em
        e-------------------------------------------
        b-------------------------------------------
        g-7----------------------7------------------  X2
        d-5----7----5---5-5-5-5--5----7----7/9------
        a------5----3---3-3-3-3-------5-------------
        e-------------------------------------------
sabes que fue un camino........


PRE SOLO

e-------------------------------------------------
b-------------------------------------------------
g-------------------------------------------------
d-9--7-9-7-5--4-5-4-2----2-4-5-4-2-7--7-5-4-5-4-2-
a----------------------5--------------------------
e-------------------------------------------------

e-------------------------------------------------
b-------------------------------------------------
g-9--7-9-7-5--4-5-4-2----2-4-5-4-2-7--7-5-4-5-4-2-
d----------------------5--------------------------
a-------------------------------------------------
e-------------------------------------------------


e------------------------------------------------------
b-12--10-12-10-8-7-8-7-5----5-7-8-7-5-10--10-8-7-8-7-5-
g-------------------------7----------------------------
d------------------------------------------------------
a------------------------------------------------------
e------------------------------------------------------


e-15--14-15-14-12--10-12-10--------10-12-14-12-10-15--15-14-12-14-12
b---------------------------13--13----------------------------------
g-------------------------------------------------------------------
d-------------------------------------------------------------------
a-------------------------------------------------------------------
e-------------------------------------------------------------------


----y eso es todo el solo lo pondre luego--------

ALGUNA DUDA SOLO ESCRIBAN A MI CORREO
--------julianrock4ever@
  ---------------------------------------
    -----------------------------------
      -------------------------------
        ---------------------------
          -----------------------
            -------------------
              ---------------
                -----------
                  -------
                    ---
Suggest correction
Give kudos to tab author, rate the tab!
1 2 3 4 5
comments
print report bad tab
guest
You may want to rate the tab now too:
select rating
Wanna post a correction for this tab? Suggest correction