Oops, an error
Loading. Please wait.

Corazón De Rock & Roll Tab

94 views 1 this week
no commentswrite comment
1 2 3 4 5
3 more votes to show rating
add to favorites
launch autoscroll
font size
0
reset
how to read this tab
guitar tuner
×
Best way to learn
"Corazón De Rock & Roll"
Autoscroll
slow
fast
+/-
esc
set tempo
stop
|----------------------------------------------------------| X2
|----------------------------------------------------------|
|----------------------------------------------------------|
|------------------------------2--2-2-2-2-2-2-2-2-2-2-2-2--|
|--2--------2-------------2----2--2-2-2-2-2-2-2-2-2-2-2-2--|
|--0--0-3-5---5-3--0-0-3-5-----0--0-0-0-0-0-0-0-0-0-0-0-0--|


|----------------------------------------------------------|
|----------------------------------------------------------|
|------------------------------2--2-2-2-2-2-2-2-2-2-2-2-2--|
|--2-------2---------------2---2--2-2-2-2-2-2-2-2-2-2-2-2--|
|--0--0-3-5--5-3--0--0-3-5-----0--0-0-0-0-0-0-0-0-0-0-0-0--|
|----------------------------------------------------------|


|----------------------------------------------------------|
|----------------------------------------------------------|
|----------------------------------------------------------|
|------------------------------2--2-2-2-2-2-2-2-2-2-2-2-2--|
|--2--------2--------------2---2--2-2-2-2-2-2-2-2-2-2-2-2--|
|--0--0-3-5--5-3--0--0-3-5-----0--0-0-0-0-0-0-0-0-0-0-0-0--|

----------------------------------------------------------------
Repite la primera parte ya con letra

La paga en el bolsillo, la semana se acabó
a calle está esperando, la faena terminó.
|--------------------------------------------------------------- X2
|---------------------------------------------------------------
|---------------------------------------------------------------
|-----------------------------------2--2-2-2-2-2-2-2-2-2-2-2-2--
|----2--------2--------------2------2--2-2-2-2-2-2-2-2-2-2-2-2--
|----0--0-3-5--5-3--0--0-3-5--------0--0-0-0-0-0-0-0-0-0-0-0-0--

Mi padre me ha prestado las llaves de su Ford.
|---------------------------------------------------------------
|---------------------------------------------------------------
|-----------------------------------2--2-2-2-2-2-2-2-2-2-2-2-2--
|----2--------2--------------2------2--2-2-2-2-2-2-2-2-2-2-2-2--
|----0--0-3-5--5-3--0--0-3-5--------0--0-0-0-0-0-0-0-0-0-0-0-0--
|---------------------------------------------------------------
Hey! mamá no sufras esto es sólo rock & roll
|---------------------------------------------------------------
|---------------------------------------------------------------
|---------------------------------------------------------------
|-----------------------------------2--2-2-2-2-2-2-2-2-2-2-2-2--
|----2--------2--------------2------2--2-2-2-2-2-2-2-2-2-2-2-2--
|----0--0-3-5--5-3--0--0-3-5--------0--0-0-0-0-0-0-0-0-0-0-0-0--

-----------------------------------------------------------------
Estrivillo

A5                  G5
Corazón de rock & roll
C5                    D5
es lo que yo quiero, nena.
A5                  G5
Corazón de rock & roll
C5                  D5
es lo que yo tengo.
----------------------------------------------------------------
Esta parte sona cordes en quintas pero con un pequeño cambio

G5                      C5
Y     al      llegar     la       noche
|--3--3--3--3------     |--3--3--3--3----
|--3--3--3--3------     |--4--4--4--4----
|--4--4--4--4------     |--5--5--6--5----
|--5--5--6--5------     |--5--5--5--5----
|--5--5--5--5------     |--3--3--3--3----
|--3--3--3--3------     |----------------

A5                       D5
la cosa se calienta en  el garito de Ramón.
|--5--5--5--5-------    |--5--5--5--5----
|--5--5--5--5-------    |--6--6--6--6----
|--6--6--6--6-------    |--7--7--8--7----
|--7--7--8--7-------    |--7--7--7--7----
|--7--7--7--7-------    |--5--5--5--5----
|--5--5--5--5-------    |----------------

G5                       C5
Viernes      por        la       noche,
A5                       D5
de aquí nadie se mueve hasta que suene el rock.
G5                       C5
Al          llegar      la        noche
A5                       D5
la cosa está que arde en la plaza del farol.
G5                       C5
Viernes     por         la        noche
A5                       D5
de aquí nadie se mueve hasta que suene el rock.
--------------------------------------------------------------
la canción sigue y se trata de repetir esto mismo.
En cuanto al solo y la florituras os las dejo a quienes sepais
por que a mi se me escapa del entendimiento... de momento.
Si quereis decirme algo o corregir lo que veais mal hacerlo a:
 soto77@
Muchas grcias y espero que disfruteis de esta canción y del rock.
Suggest correction
Give kudos to tab author, rate the tab!
1 2 3 4 5
comments
print report bad tab
guest
You may want to rate the tab now too:
select rating
Wanna post a correction for this tab? Suggest correction