Oops, an error
Loading. Please wait.

Más Allá De Las Palabras Bass Tab

17 views 1 this week
no commentswrite comment
1 2 3 4 5
3 more votes to show rating
add to favorites
launch autoscroll
font size
0
reset
guitar tuner
×
Best way to learn
"Más Allá De Las Palabras"
Autoscroll
slow
fast
+/-
esc
set tempo
stop
             [intro]

---------------------------------------------
---------------------------------------------
---------------------------------------------
33-22-88-7-8-6-7-6(x5)-----------------------


llevare un marca gravada en mi piel...

---------------------------------------------
--------------------------------------------- [las vcss q sean necesario]
---------------------------------------------
3-33-5-7-5-3-33-5-7-5------------------------


es imposible calcular el valor de tu amistad...

---------------------------------------------
---------------------------------------------
---------------------------------------------
33333333333333-55555555555555-77777777777777-


pedir perdon,porque es dificil admitir un error...

---------------------------------------------
--------------------------------------------- [las vcss q sean necesario]
---------------------------------------------
3-33-5-7-5-3-33-5-7-5------------------------


es imposible calcular el valor de tu amistad...

---------------------------------------------
---------------------------------------------
---------------------------------------------
33333333333333-55555555555555-77777777777777-


---------------------------------------------
---------------------------------------------
---------------------------------------------
33-77-33-1010-9-10-8-9-8---------------------


---------------------------------------------
---------------------------------------------
---------------------------------------------
333333333-777777777-222222222-1010-9-10-8-9-8


---------------------------------------------
---------------------------------------------
---------------------------------------------
33-22-88-7-8-6-7-6(x5)-----------------------


es imposible calcular el valor de tu amistad...
[esa parte va en bajo]

---------------------------------------------
---------------------------------------------
---------------------------------------------
33333333333333-55555555555555-77777777777777-


te llevare me llevaras en mi memoria quedaras...

---------------------------------------------
---------------------------------------------
---------------------------------------------
33333333333333-55555555555555-77777777777777-
Suggest correction
Give kudos to tab author, rate the tab!
1 2 3 4 5
comments
print report bad tab
guest
You may want to rate the tab now too:
select rating
Wanna post a correction for this tab? Suggest correction