Oops, an error
Loading. Please wait.

Nunca Volverá Tab

64 views 3 this week
no commentswrite comment
1 2 3 4 5
3 more votes to show rating
add to favorites
launch autoscroll
font size
0
reset
how to read this tab
guitar tuner
×
Best way to learn
"Nunca Volverá"
Autoscroll
slow
fast
+/-
esc
set tempo
stop
Nunca Volverá

Intro: C#m-A-B-A (x2)

e -------11-11-12-11-12-12s14-12-11--12-12s14-12-11-12-
b -14-14-----------------------------------------------
g -----------------------------------------------------   x2
d -----------------------------------------------------
a -----------------------------------------------------
e -----------------------------------------------------


e -------11-11-12-11--11----11-11---12-12----11-11---
b -14-14------------14----12------14------12---------
g ---------------------------------------------------
d ---------------------------------------------------
a ---------------------------------------------------
e ---------------------------------------------------


e -------11-11-12-12-14-14-16-16-14-14-12-12-
b -14-14-------------------------------------
g -------------------------------------------
d -------------------------------------------
a -------------------------------------------
e -------------------------------------------


e |-------11-11-12-11--------11-12-12s14-12-11-12--
b |-14-14------------14---14-----------------------
g |------------------------------------------------
d |------------------------------------------------
a |------------------------------------------------
e |------------------------------------------------
  |
e |------------------------------------------------
b |-16f--------------------------------------------
g |------------------------------------------------ guitarra
d |------------------------------------------------ de fondo
a |------------------------------------------------
e |------------------------------------------------


e |-------11-11-12-11--------11-12-12s14-12-11-12--
b |-14-14------------14---14-----------------------
g |------------------------------------------------
d |------------------------------------------------
a |------------------------------------------------
e |------------------------------------------------
  |
e |------------------------------------------------
b |-18f--------------------------------------------
g |------------------------------------------------ guitarra
d |------------------------------------------------ de fondo
a |------------------------------------------------
e |------------------------------------------------

e |-------11-11-12-11--------11-12-12s14-12-11-12--
b |-14-14------------14---14-----------------------
g |------------------------------------------------
d |------------------------------------------------
a |------------------------------------------------
e |------------------------------------------------
  |
e |------------------------------------------------
b |-19f--------------------------------------------
g |------------------------------------------------ guitarra
d |------------------------------------------------ de fondo
a |------------------------------------------------
e |------------------------------------------------


e |-------11---12--14-16-14-12-11-12-11-----------
b |-14-14----14--14---------------------14-12-14--
g |-----------------------------------------------
d |-----------------------------------------------
a |-----------------------------------------------
e |-----------------------------------------------
  |
e |------------------------------------------------
b |-20f--------------------------------------------
g |------------------------------------------------ guitarra
d |------------------------------------------------ de fondo
a |------------------------------------------------
e |------------------------------------------------


Estrofa 1:C#m-G#m- A

La encontraron dias después

con las manos blancas de pintar

e ------------------------
b -12-------12------------
g ----9--------9-8-8s(9)--
d ------11----------------
a ------------------------
e ------------------------

Su nombre en la pared

y el tuyo junto a él

borrado de pensar

e ------------------------
b -12-------12------------
g ----9--------9-8-8s(9)--
d ------11----------------
a ------------------------
e ------------------------

Coro:E-B-C#m-A

Que nunca volverá

que nunca he estado alli

que todas las promesas que hizo

no eran de verdad (repetir x2)


Intro2:

e |-------11-11-12-11--------11-12-12s14-12-11-12--
b |-14-14------------14---14-----------------------
g |------------------------------------------------
d |------------------------------------------------
a |------------------------------------------------
e |------------------------------------------------
  |
e |------------------------------------------------
b |-16f--------------------------------------------
g |------------------------------------------------ guitarra
d |------------------------------------------------ de fondo
a |------------------------------------------------
e |------------------------------------------------


e |-------11-11-12-11--------11-12-12s14-12-11-12--
b |-14-14------------14---14-----------------------
g |------------------------------------------------
d |------------------------------------------------
a |------------------------------------------------
e |------------------------------------------------
  |
e |------------------------------------------------
b |-18f--------------------------------------------
g |------------------------------------------------ guitarra
d |------------------------------------------------ de fondo
a |------------------------------------------------
e |------------------------------------------------

e |-------11-11-12-11--------11-12-12s14-12-11-12--
b |-14-14------------14---14-----------------------
g |------------------------------------------------
d |------------------------------------------------
a |------------------------------------------------
e |------------------------------------------------
  |
e |------------------------------------------------
b |-19f--------------------------------------------
g |------------------------------------------------ guitarra
d |------------------------------------------------ de fondo
a |------------------------------------------------
e |------------------------------------------------


e |-------11---12--14-16-14-12-11-12-11-----------
b |-14-14----14--14---------------------14-12-14--
g |-----------------------------------------------
d |-----------------------------------------------
a |-----------------------------------------------
e |-----------------------------------------------
  |
e |------------------------------------------------
b |-20f--------------------------------------------
g |------------------------------------------------ guitarra
d |------------------------------------------------ de fondo
a |------------------------------------------------
e |------------------------------------------------


Estrofa 2:C#m-G#m- A

Al verte quiso gritar

y no pudo más que susurrar

e -------------------------------------
b ---------12---12-------12------------
g --11h(13)--------9--------9-8-8s(9)--
d -------------------11----------------
a -------------------------------------
e -------------------------------------

Palabras sin razón

Rompió su corazón

lamentando pensar


Coro:E-B-C#m-A

Que nunca volverá

que nunca he estado alli

que todas las promesas que hizo

no eran de verdad (repetir x2)


Solo:(aunque sospecho que son octavas)

e --------------------------------------------
b --------------------------------------------
g -13-13s11-11s(9)-9s11---13-13s11-11-9-9s11--
d --------------------------------------------
a --------------------------------------------
e --------------------------------------------

e ---------------------------------
b ---------------------------------
g -13-13s11-11-9----4-4s(6)-8-9-9--  todo x2
d ---------------------------------
a ---------------------------------
e ---------------------------------


Coro:E-B-C#m-A

Que nunca volverá

que nunca he estado alli

que todas las promesas que hizo

no eran de verdad   ...(repetir x4)

Final: A(x2) - E
Suggest correction
Give kudos to tab author, rate the tab!
1 2 3 4 5
comments
print report bad tab
guest
You may want to rate the tab now too:
select rating
Wanna post a correction for this tab? Suggest correction