Oops, an error
Loading. Please wait.

Ojos De Cielo Tab

version 2
version 2

Whole song

25 views 1 this week
no commentswrite comment
1 2 3 4 5
3 more votes to show rating
add to favorites
launch autoscroll
font size
0
reset
how to read this tab
guitar tuner
Autoscroll
slow
fast
+/-
esc
set tempo
stop
Help us to improve Ultimate-Guitar.com Take our survey!
×
Te lo dedico a ti mi niña que no se como lo haces pero
consigues que cada dia que pase te quiera mas y perdoname
si alguna ves as derramado alguna lagrima por mi...te prometo
que jamas caera una mas...GRACIAS por todo PAULA...:)

INTRO

Esto es lo que hace DAVID con la acustica en todos los versos

    A4    A     A5    A
E||-0-000-0-000-0-000-0-000--||
B||-3-333-2-222-0-000-2-222--||
G||-2-222-2-222-2-222-2-222--||
D||-2-222-2-222-2-222-2-222--||
A||-0-000-0-000-0-000-0-000--||
E||--------------------------||

Este es el pequeño riff que se pega JUAN con la electrica

E||-10-------9-------9----8-------9-------9---||
B||----10-10---10-10---10---10-10---10-10--10-||
G||-------------------------------------------||
D||-------------------------------------------||
A||-------------------------------------------||
E||-------------------------------------------||

VERSOS

Se repite el punteo de la intro durante todo el verso

A4        A            A5           A
Duelen los momentos de heridas sin palabras
A4            A            A5            A
De heridas con palabras sin apenas decir nada
A4          A       A5        A
Apenas dices nada y nada es suficiente
A4           A       A5             A
Piensa que es demente hacer caso ala gente

PRECORO

E||---9-10----9-10--9--9--9--9--10--10--10--10----||
B||-10-----10--------10-10-10-10--10--10--10--10--||
G||-----------------------------------------------||
D||-----------------------------------------------||
A||-----------------------------------------------||
E||-----------------------------------------------||

A4           A              A5     A
Y yo si tu no estas yo no se estar

ESTRIBILLO

        A5            B5         C#5             D5
Perdoname si alguna ves te hice llorar ojos de cielo
        A5            B5            C#5          D5
Perdoname si alguna ves robe de tus labios un te quiero

E||--------------------|  E||-----------||
B||-12-12-10-10--------|| B||-----------||
G||-------------9-9-9--|| G||-11~-9~-7~-||
D||--------------------|| D||-----------||
A||--------------------|| A||-----------||
E||--------------------|| E||-----------||

El primer punteo se repite 3 veces y sige el otro todo x2

E||-------||
B||-------||
G||-2~~~--||
D||-2~~~--||
A||-0~~~--||
E||-------||

VERSO 2

Exactamente igual que el verso 1

A4      A        A5              A
Sigo tus pisadas aunque aveces me pierdo
A4               A           A5            A
Me pierdo en 1000 preguntas y siempre acavo hullendo
A4           A         A5              A
Porque salir corriendo si te llevo aqui adentro
A4             A      A5               A
Hoy te hecho de menos pero esque tengo miedo

PRECORO

Exactamente igual que el anterior

ESTRIBILLO

        A5            B5         C#5             D5
Perdoname si alguna ves te hice llorar ojos de cielo
        A5            B5            C#5          D5
Perdoname si alguna ves robe de tus labios un te quiero

E||--------------------|  E||-----------||
B||-12-12-10-10--------|| B||-----------||
G||-------------9-9-9--|| G||-11~-9~-7~-||
D||--------------------|| D||-----------||
A||--------------------|| A||-----------||
E||--------------------|| E||-----------||

El primer punteo se repite 3 veces y sige el otro todo x2

INTERLUDIO

D5               C#5          B5
Hoy aunque estes lejos sigo aqui
D5          C#5            B5  E5
Sabes que no puedo no sin ti

A4        A            A5           A
Duelen los momentos de heridas sin palabras
A4            A            A5            A
De heridas con palabras sin apenas decir nada
A4          A       A5        A
Apenas dices nada y nada es suficiente
A4           A       A5             A
Piensa que es demente hacer caso ala gente

PRECORO

Exactamente que los demas

ESTRIBILLO


        A5            B5         C#5             D5
Perdoname si alguna ves te hice llorar ojos de cielo
        A5            B5            C#5          D5
Perdoname si alguna ves robe de tus labios un te quiero

E||--------------------|  E||-----------||
B||-12-12-10-10--------|| B||-----------||
G||-------------9-9-9--|| G||-11~-9~-7~-||
D||--------------------|| D||-----------||
A||--------------------|| A||-----------||
E||--------------------|| E||-----------||

''Repetir hasta que acabe el tema ''

Bueno creo que esta todo 100% corrorecto cualquier duda
me envias un e-mail ok ?
Suggest correction
Give kudos to tab author, rate the tab!
1 2 3 4 5
comments
print report bad tab
guest
You may want to rate the tab now too:
select rating
Wanna post a correction for this tab? Suggest correction