Oops, an error
Loading. Please wait.

Si No Estás Tab

46 views 1 this week
no commentswrite comment
1 2 3 4 5
3 more votes to show rating
add to favorites
launch autoscroll
font size
0
reset
how to read this tab
guitar tuner
×
Best way to learn
"Si No Estás"
Autoscroll
slow
fast
+/-
esc
set tempo
stop
____ acordes ____________
|                       |
| E:    022100          |
| G#m:  466444          |
| A:    577655 o 002220 |
| C#m:  446654          |
| B:    799877 o 224442 |
|_______________________|


         E
Si no estás me traiciona el subconsciente.
         G#m                                 A
Si no estás me descubro de repente nombrándote

y me siento tan pequeña.
         E
Si no estás te deseo en tu camino
      G#m                                     A
lo mejor, que unos nuevos brazos te den el calor

que en los míos no encontraste,

que en los míos no encontraste.


C#m                B                A             B
  Ojalá pudiese odiarte, ojalá    fuera más fácil olvidarte,


E                    B                     C#m
  Ojalá que tengas suerte, ojalá no duela tanto no verte
         A                        E
  y los días me hagan mucho más fuerte.
                     B                     C#m
  Ojalá que tengas suerte, ojalá no duela tanto no verte
         A
  y los días pasan lentos.


         E
Si no estás todo pierde su sentido.
         G#m                                      A
Si no estás y ya no encuentro motivos para continuar,

y me siento tan perdida.
         E
Si no estás acaricio tu recuerdo
        G#m                                       A
sin querer, y deseo que el destino te vuelva a traer

y ya no puedas marcharte,

y no vuelvas a marcharte.


C#m                B                A             B
  Ojalá pudiese odiarte, ojalá    fuera más fácil olvidarte,


E                    B                     C#m
  Ojalá que tengas suerte, ojalá no duela tanto no verte
         A                        E
  y los días me hagan mucho más fuerte.
                     B                     C#m
  Ojalá que tengas suerte, ojalá no duela tanto no verte
         A
  y los días pasan lentos
           E
  si no estás.


[punteo base 1]
                     B         C#m              A
                          Los días pasan lentos
           E         B         C#m              A
  si no estás.

              E
  si tú no estás.


[punteo base 2]

                     B                     C#m
  Ojalá que tengas suerte, ojalá no duela tanto no verte
         A                        E
  y los días me hagan mucho más fuerte.
                     B                     C#m
  Ojalá que tengas suerte, ojalá no duela tanto no verte
         A
  y los días pasan lentos
              E
  si tú no estás.


[punteo base 1]:
    E                                B
E-||0-0-0-0-0-0-0-0-0-0-0-0-0-0-0-0-|0-0-0-0-0-0-0-0-0-0-0-0-0-0-0-0-|
B-||5-5-5-7-7-7-9-9-9-9-9-9-9-9-9-9-|5-5-5-7-7-7-9-9-9-9-9-9-9-9-9-9-|
G-||--------------------------------|--------------------------------|
D-||--------------------------------|--------------------------------|
A-||--------------------------------|--------------------------------|
E-||--------------------------------|--------------------------------|

    C#m                              A
E-||0-0-0-0-0-0-0-0-0-0-0-0-0-0-0-0-|0-0-0-0-0-0-0-0-0-0-0-0-0-0-0-0-|
B-||5-5-5-7-7-7-9-9-9-9-9-9-9-9-9-9-|5-5-5-7-7-7-9-9-9-9-9-9-9-9-9-9-|
G-||--------------------------------|--------------------------------|
D-||--------------------------------|--------------------------------|
A-||--------------------------------|--------------------------------|
E-||--------------------------------|--------------------------------|

    E                                B
E-||0-0-0-0-0-0-0-0-0-0-0-0-0-0-0-0-|0-0-0-0-0-0-0-0-0-0-0-0-0-0-0-0-|
B-||5-5-5-7-7-7-9-9-9-9-9-9-9-9-9-9-|5-5-5-7-7-7-A-9-9-9-9-9-9-9-9-9-|
G-||--------------------------------|--------------------------------|
D-||--------------------------------|--------------------------------|
A-||--------------------------------|--------------------------------|
E-||--------------------------------|--------------------------------|

    C#m                              A
E-||0-0-0-0-0-0-0-0-0-0-0-0-0-0-0-0-|0-0-0-0-0-0-0-0-0-0-0-0-0-0-0-0-|
B-||5-5-5-7-7-7-A-9-9-9-9-9-9-9-9-9-|A-A-A-A-A-A-A-A-A-A-A-A-A-A-A-A-|
G-||--------------------------------|--------------------------------|
D-||--------------------------------|--------------------------------|
A-||--------------------------------|--------------------------------|
E-||--------------------------------|--------------------------------|


[punteo base 2]:
    E                                B
E-||7H9-7---7H9-7---7H9-7---7H9-7---|7H9-7---7H9-7---7H9-7---7H9-7---|
B-||--------------------------------|--------------------------------|
G-||------9-------9-------9-------9-|------9-------9-------9-------9-|
D-||--------------------------------|--------------------------------|
A-||--------------------------------|--------------------------------|
E-||--------------------------------|--------------------------------|

    C#m                              A
E-||7H9-7---7H9-7---7H9-7---7H9-7---|7H9-7---7H9-7---7H9-7---7H9-7---|
B-||--------------------------------|--------------------------------|
G-||------9-------9-------9-------9-|------9-------9-------9-------9-|
D-||--------------------------------|--------------------------------|
A-||--------------------------------|--------------------------------|
E-||--------------------------------|--------------------------------|


###------------------------------###
### Tablatura de: Enrique Moraño ###
### Sevilla [España]    MAY-2009 ###
###      emorano@     ###
###------------------------------###
Suggest correction
Give kudos to tab author, rate the tab!
1 2 3 4 5
comments
print report bad tab
guest
You may want to rate the tab now too:
select rating
Wanna post a correction for this tab? Suggest correction