Oops, an error
Loading. Please wait.

La Fuerza Del Metal Tab

version 1
version 1

Whole song

39 views 1 this week
no commentswrite comment
1 2 3 4 5
3 more votes to show rating
add to favorites
×
Save as Personal and add changes to this tab that will be seen only by you. Learn more ›
×
You can save this tab as Personal to edit and correct it or add notes. All changes will be seen only by you. Learn more »
save as personal
new!
launch autoscroll
font size
0
reset
how to read this tab
guitar tuner
Autoscroll
slow
fast
+/-
esc
set tempo
stop
Intro:
e ---------------------------------------------- 
B ----------------------------------------------
G ----------------------------------------------
D ------7--------7--------7-----9--7--------7---
A ---7--7-----7--7-----7--7-----9--7-----7--7---
E ---5--5-----5--5-----5--5-----7--5-----5--5---
 
e ---------------------------------------------|
B ---------------------------------------------|
G ---------------------------------------------|
D -----7---------7----9--7--------7------------|
A --7--7-----7--7-----9--7-----7--7------------|
E --5--5-----5--5-----7--5-----5--5------------|
 
e ----------------------------------------------------- 
B ----------------------------------------------------- 
G ----------------------------------------------------- 
D -----7----7-----7---7--7------9----9-----9--9------7- 
A ---7---7----7-----7---------9---9-----9----------7--- 
E --5------5----5------------7------7------------5----- 
 
e -----------------------
B -----------------------
G -----------------------
D ------7------7----7?7--
A -7-------7------7------
E ----5-------5----------
 
Esta es la parte del bajo al menos se parece 
 
|---------------------------------------------------|
|--------9-----9--------9--7------------------------|
|-----9----9------9-----------9--7--9--7------------|
|---7-----------------7----------------------9--7---|
 
|--------------------------------|----------------------------------
|--------7-------7-----7--7--7---|------9------9-------9-------9--9-
|-----7----7-------7-------------|------9------9-------9-------9--9-
|--5---------5-------------------|-7--7---7--7----7--7----7--7------
 
---------------------------------------------
------9-------9-------9-------9--9-----------
------9-------9-------9-------9--9-----------
-7--7----7--7----7--7----7--7----------------
 
Aquí entra la guitarra
e ---------------------------------------------- 
B ---------------------------------------------- 
G ---------------------------------------------- 
D ------7-----7-----7------7--7-----7------7---- 
A ------7-----7-----7------7--7-----7------7---- 
E --5--5--5--5---5-5---5--5-----5--5---5--5---5- 
 
e ---------------------------------------------|  
B ---------------------------------------------|
G ---------------------------------------------|
D --7------7--7------9------9------9------9?-9-|
A --7------7--7------9------9------9------9?-9-|     
E -5---5--5------7--7---7--7---7--7---7--7-----|
 
Todo esto: las estrofas, el coro y el bridge los tocas mientras cantas...
 
Estrofas:
e ----------------------------------------------------------------|   
B ----------------------------------------------------------------|
G ----------------------------------------------------------------|
D -----7---7--7--7------7---7--7--7------7---7--7--7------9--7----|
A --7--7---7--7--7---7--7---7--7--7---7--7---7--7--7---7--9--7----|
E --5--5---5--5--5---5--5---5--5--5---5--5---5--5--5---5--7--5----|
          |_______|        |_______|        |_______|      
       apagado          apagado          apagado
 
Coro:   
e ----------------------------------------------------------------|   
B ----------------------------------------------------------------|
G ----------------------------------------------------------------|
D -----7---7--7--7------7---7--7--7------7---7--7--7------9--7----|
A --7--7---7--7--7---7--7---7--7--7---7--7---7--7--7---7--9--7----|
E --5--5---5--5--5---5--5---5--5--5---5--5---5--5--5---5--7--5----|
          |_______|        |_______|        |_______|      
          apagado       apagado          apagado 
    A toda esa gente de cuero y metal...
Bridge
e ----------------------------------------------------------------|   
B ----------------------------------------------------------------|
G ----------------------------------------------------------------|
D -----7---7--7--7------7---7--7--7------7---7--7--7------9--7----|
A --7--7---7--7--7---7--7---7--7--7---7--7---7--7--7---7--9--7----|
E --5--5---5--5--5---5--5---5--5--5---5--5---5--5--5---5--7--5----|
          |_______|        |_______|        |_______|      
           apagado          apagado          apagado 
   y les decimos no...
 
Solo
e -------------------------------------------------------------   
B ------------------------------------------------------------- 
G ------------------------------------------------------------- 
D -------9------9------9-----9--9-----7-----7------7------7--7- 
A -------9------9------9-----9--9-----7-----7------7------7--7- 
E --7--7----7--7---7--7--7--7-----5--5--5--5---5--5---5--5----- 
 
e ---------------------------------------------------------------
B ---------------------------------------------------------------
G ---------------------------------------------------------------
D -----7------7------7------7?7--------9------9------9------9--9-
A -----7------7------7------7?7----7--7---7-7----7--7---7--7-----
E -5--5---5--5---5?5----5--5-----------9------9------9------9--9-
 
e |-----------------------------------------------------------------  
B |-----------------------------------------------------------------
G |--16~--16/14?-12/10?9~-11?9/10--10(11)--11?12--13--15(16)-15(16)-
D |-----------------------------------------------------------------
A |-----------------------------------------------------------------
E |-----------------------------------------------------------------
 
e ---------------------------------------------------------------|    
B ---------------------------------------------------------------|
G -18(19)--20~--22~--22--20~--18--16--14--13?-15(16)--15--13--10-|
D ---------------------------------------------------------------|
A ---------------------------------------------------------------|
E ---------------------------------------------------------------|
 
e -------------------------------------------------------    
B -------------------------------------------------------
G ?10(12)-13-13--10(12)-13-13--10(12)-13-13?-10(12)-13-13
D -------------------------------------------------------
A -------------------------------------------------------
E -------------------------------------------------------
 
e ----------------------------------|
B ----------------------------------|
G --10(12)-13-13--10(12)-13-13------|
D ----------------------------------|
A ----------------------------------|
E ----------------------------------|
 
e --------------------------------------------------------------|    
B -----------------------------------------------------12/17~---|
G -?10(12)-13-13--10(12)-13-13--10(12)-13-13--10-13-12----------|
D --------------------------------------------------------------|
A --------------------------------------------------------------|
E --------------------------------------------------------------|
 
e -----------------------------------------------------------------|   
B -----------------------------------------------------------------|
G -----------------------------------------------------------------|
D -----7---7--7--7------7---7--7--7------7---7--7--7------9--7-----|
A --7--7---7--7--7---7--7---7--7--7---7--7---7--7--7---7--9--7-----|
E --5--5---5--5--5---5--5---5--5--5---5--5---5--5--5---5--7--5-----|
          |_______|        |_______|        |_______|      
          apagado          apagado          apagado
 
Y aquí viene la segunda estrofa: 
e -----------------------------------------------------------------|   
B -----------------------------------------------------------------|
G -----------------------------------------------------------------|
D -----7---7--7--7------7---7--7--7------7---7--7--7------9--7-----|
A --7--7---7--7--7---7--7---7--7--7---7--7---7--7--7---7--9--7-----|
E --5--5---5--5--5---5--5---5--5--5---5--5---5--5--5---5--7--5-----|
          |_______|        |_______|        |_______|      
          apagado          apagado          apagado
 

Luego repite de nuevo el coro y ¡¡Lo lograste! 
Eso es todo, al menos yo la toco así
 
No sé bien las líricas pero creo que es algo como esto:
 
Las manos me impiden de tanto sonar(?)
 creencias perdidas volver a empezar
Acude la gente a conciertos de rock 
te cortan el pelo y caes en prisión
 
A toda esa gente de cuero y metal 
que siga luchando por su ideal
Aunque esos malditos nos quieran pisar 
guitarras y voces los derrotarán
Pero no nos pueden vencer es la fuerza del metal
 
Y les decimos no... no
 
Ahí por las calles siempre te ven mal 
te dan las espaldas no dejan de hablar
Si ellos comprendieran que hay dentro de ti 
hallarían potencia razón de vivir(?)
 
A toda esa gente...
 
Y les decimos no (x2)
 
Eso es todo, si tienes alguna duda, comentario o debes hacer 
alguna corrección, por favor házmela saber a mi correo
electrónico: sexyrocker85@
Suggest correction
Give kudos to tab author, rate the tab!
1 2 3 4 5
comments
print report bad tab
guest
Wanna post a correction for this tab? Suggest correction