Oops, an error
Loading. Please wait.

La Fuerza Del Metal Tab

version 2
version 2

Whole song

12 views 1 this week
no commentswrite comment
1 2 3 4 5
3 more votes to show rating
add to favorites
launch autoscroll
font size
0
reset
how to read this tab
guitar tuner
Autoscroll
slow
fast
+/-
esc
set tempo
stop
Help us to improve Ultimate-Guitar.com Take our survey!
×
Aqui va el comienzo
e---------------------------
b---------------------------
g---------------------------
D--7-9--7-9--7-9--12-11--7-9----
A--5-7--5-7--5-7--10-9--5-7-----
E---------------------------
se repite 2 veces 
RIFF 1
g-----------------------------
D--99/9--99/9--99/9--99/9^9--
A--77/7--77/7--77/7--77/7^7--
E---------------------------

g---------------------------
D--77/7--77/7--77/7--77/7^7-
A--55/5--55/5--55/5--55/5^5-
E---------------------------

g----------------------------
D--55/5--55/5--55/5--55/5^5--
A--33/3--33/3--33/3--33/3^3--
E----------------------------

g----------------------------
D--77/7--77/7--77/7--77/7^7--
A--55/5--55/5--55/5--55/5^5--
E----------------------------

g----------------------------
D--99/9--99/9--99/9--99/9^9--
A--77/7--77/7--77/7--77/7^7--
E---------------------------

esto va en las estrofas
g----------------------------
D--7/99999/--7/99999/--7/99999/
A--5/77777/--5/77777/--5/77777/
E----------------------------

g----------------------------
D--12-11--7/99999/------------
A--10-9--5/77777/------------
E---------------------------

esto es en el coro
g------------------------------
D--5/55555/--7/77777/--12-11-9
A--3/33333/--5/55555/--10-9-7
E----------------------------

y les decimos ....................
g---------------------------------
D--5/55555/--7/77777/--------------
A--3/33333/--5/55555/-------------
E-------------------------------

aqui viene el riff 1 , luego el solo ,
luego la segunda estrofa, por ultimo  se 
toca el coro otra vez y listo.

estrofa

desgastando tu vida intentando sonar
energias perdidas volver a empezar 
acude la gente a conciertos de rock
te cortan el pelo y caes en prision 

a toda esa gente de cuero y metal 
que siga luchando por su ideal
aunque esos  malditos nos quieran pisar 
guitarras y voces los derrotaran

coro

pero no nos pueden vencer 
es la fuerza 
DEL METAL
Y LES DECIMOS NO NO NOOOOOOOOOOOOOOOO

2 estrofa

al ir por las calles siempre te ven mal
te dan las espaldas no dejan de hablar 
que ellos comprendieran que hay dentro de ti
el heavy es potencia razon de vivir

a toda ........................
Suggest correction
Give kudos to tab author, rate the tab!
1 2 3 4 5
comments
print report bad tab
guest
You may want to rate the tab now too:
select rating
Wanna post a correction for this tab? Suggest correction