Oops, an error
Loading. Please wait.

La Fuerza Del Metal Tab

version 3
version 3

Whole song

26 views 1 this week
no commentswrite comment
1 2 3 4 5
3 more votes to show rating
add to favorites
launch autoscroll
font size
0
reset
how to read this tab
guitar tuner
Autoscroll
slow
fast
+/-
esc
set tempo
stop
Help us to improve Ultimate-Guitar.com Take our survey!
×
Que tal gente, aquí estoy con una gran canción de un gran grupo ecuatoriano como lo es Sueño Eterno quienes por
cierto están próximos a sacar disco. Esta tablatura esta 95% bien sacada (algo es algo), la que esta antes de esta
no suena nada bien o el tipo la saco por sacar o andaba medio mal de los oidos.
Quiero enviar unos saludos a todos los rockeros ecuatorianos, a mis panas del Mena del Hierro y de San Sebastián de
Calderon 1 y sobretodo a la persona que me inspira día a día para seguir adelante, Alejandra Llerena, la mujer más bella
del Ecuador y del mundo a quien dedico todo lo que hago.
Espero que les guste este tema.


Intro

E------------------------------------
B------------------------------------
G---------------------------7-6------
D-7-9-------7-9-------7-9---5-4--7-9-   dos veces
A-5-7-------5-7-------5-7--------5-7-
E------------------------------------


Parte de bajo    no suena igual pero es casi parecido
00:34
G--------------------------------------------------------------------------------
D--------------------------------------------------------------------------------
A------9-----9-----9-----9-9-----7-----7-----7-----7-7-----5-----5-----5-----5-5-
E--7-7---7-7---7-7---7-7-----5-5---5-5---5-5---5-5-----3-3---3-3---3-3---3-3-----


G----------------------------------------------------------
D----------------------------------------------------------
A-----7-----7--7-5----------------9-----9-----9-----9-9----
E-5-5---5-5--------7-5-7-5-3--7-7---7-7---7-7---7-7--------

RIFF 1
Guitarra
00:47
E--------------------------------------------------------------------------------
B--------------------------------------------------------------------------------
G--------------------------------------------------------------------------------
D------9-----9-----9-----9-9-----7-----7-----7-----7-7-----5-----5-----5-----5-5-
A--7-7---7-7---7-7---7-7-----5-5---5-5---5-5---5-5-----3-3---3-3---3-3---3-3-----
E--------------------------------------------------------------------------------


E------------------------------------------------------
B------------------------------------------------------
G------------------------------------------------------
D-----7-----7-----7-----7-7-----9-----9-----9-----9-9--
A-5-5---5-5---5-5---5-5-----7-7---7-7---7-7---7-7------
E------------------------------------------------------

RIFF 2
Verso

E---------------------------------------------------
B---------------------------------------------------
G-----------------------------------------------7-6-  cuatro veces
D--7-9-9-9-9-9-9--7-9-9-9-9-9-9--7-9-9-9-9-9-9--5-4-
A--5-7-7-7-7-7-7--5-7-7-7-7-7-7--5-7-7-7-7-7-7------
E---------------------------------------------------


Coro

E----------------------------------                     ---------------------------
B----------------------------------                     ---------------------------
G-------------------------7-6------  dos veces y luego  ---------------------------
D-5-5-5-5-5-5-7-7-7-7-7-7-5-4-7-9--                     -------5-5-5-5-5-7-7-7-7-7-
A-3-3-3-3-3-3-5-5-5-5-5-5-----5-7--                     -------3-3-3-3-3-5-5-5-5-5-
E----------------------------------                     ---------------------------


RIFF 1

SOLO   DEBAJO DE ESTO VA EL RIFF 1  DOS VECES
E--------------------------------------------------------------------------------------------------------------
B---------------------------------------------19-20-20-19-17-17-15/14-12-10-12-10-8-5--------------------19-20-
G--12/16--14-12/11-9-7-9-11-12-14-16-19-21-21------------------------------------------------------------------
D--------------------------------------------------------------------------------------17p16p14--(8 veces)-----
A--------------------------------------------------------------------------------------------------------------
E--------------------------------------------------------------------------------------------------------------


Bajo
G------------------
D-------------0-2--
A-------0-2-3------
E-0-2-3------------


RIFF 2  CUATRO VECES

Coro

E----------------------------------                     ----------------------------------------
B----------------------------------                     ----------------------------------------
G-------------------------7-6------  dos veces y luego  ----------------------------------------
D-5-5-5-5-5-5-7-7-7-7-7-7-5-4-7-9--                     -------5-5-5-5-5-7-7-7-7-7-9-9-9-9-9-9--
A-3-3-3-3-3-3-5-5-5-5-5-5-----5-7--                     -------3-3-3-3-3-5-5-5-5-5-7-7-7-7-7-7--
E----------------------------------                     ----------------------------------------

E----------------------------------                     ----------------------------------------
B----------------------------------                     ----------------------------------------
G-------------------------7-6------  dos veces y luego  ---------------------------------------- dos veces
D-5-5-5-5-5-5-7-7-7-7-7-7-5-4-7-9--                     -------5-5-5-5-5-7-7-7-7-7-9-9-9-9-9-9--
A-3-3-3-3-3-3-5-5-5-5-5-5-----5-7--                     -------3-3-3-3-3-5-5-5-5-5-7-7-7-7-7-7--
E----------------------------------                     ----------------------------------------


Espero que sea de su agrado, alguna petición envíenla al correo que aparece en colaboraciones ( edisonqc@
Suggest correction
Give kudos to tab author, rate the tab!
1 2 3 4 5
comments
print report bad tab
guest
You may want to rate the tab now too:
select rating
Wanna post a correction for this tab? Suggest correction