Oops, an error
Loading. Please wait.

La Fuerza Del Metal tab

version 4
version 4

Whole song

21 views 1 this week
no commentswrite comment
1 2 3 4 5
3 more votes to show rating
add to favorites
×
Save as Personal and add changes to this tab that will be seen only by you. Learn more ›
×
You can save this tab as Personal to edit and correct it or add notes. All changes will be seen only by you. Learn more »
launch autoscroll
font size
0
reset
how to read this tab
guitar tuner
edit
Autoscroll
slow
fast
+/-
esc
set tempo
stop
BUENO, ESTA ES UNA CORRECCIOÓN DE LOS TABS ANTERIORES, ESTA 100% IGUAL, Y QUIERO DEDICAR ESTE LOGRO A LOS  Y MI GRUPO DEL COLE A TODOS LOS PANAS DE
 MENA DEL HIERRO PIWI, FRIGGY, PANCHO, MIKY, CORDONNET, LA PONCE, A IRENE  DEL 6TO FIMA 2004-2005. A MI MAMÁ Y AL CHICHO, QUIENES AGUANTARON TANTO RUIDO, HAST
 SACAR EL TAB... AL BAJISTA DE MI GRUPO QUE NO SABÍA NI PALOTE Y AHORA YA ES PRESENTABLE AL PUBLICO... A MI SOBRINOS JHAIR Y CRISTO QUIENES CANTAN Y LES GUSTA
ESTA CANCIÓN...A MIS HERMANOS RAFA, OSCAR, RICHARD, Y ESPECIALMENTE A MI PAPA QUE POR EL ESTOY EN EL ARTE DEL ROCK...                  QUITO-ECUADOR 2005-04-0


Intro: ENTRA EL BAJO CON MIM

G---------------------------7-6------
D-7-9-------7-9-------7-9---5-4--7-9-                                A-5-7-------5-7-------5-7---x-x--5-7-
E-x-x-------x-x-------x-x---x-x--x-x-

G---------------------------7-6------
D-7-9-------7-9-------7-9---5-4--7-9-                                A-5-7-------5-7-------5-7---x-x--5-7-
E-x-x-------x-x-------x-x---x-x--x-x-

AQUÍ EN ESTA PARTE VA UN INTRO DE BAJO Y ES ASÍ:

APLICA EN LAS ULTIMAS PARTES EL PALM MUTE, LO HARA SONAR DEL P?

A------9-----9-----9-----9-9-----7-----7-----7-----7-7-----5-----5-----5-----5-5
E--7-7---7-7---7-7---7-7-----5-5---5-5---5-5---5-5-----3-3---3-3---3-3---3-3----

A-----7-----7--7-5----------------9-----9-----9-----9-9----
E-5-5---5-5--------7-5-7-5-3--7-7---7-7---7-7---7-7--------

Y AHORA VA DE NUEVO LA GUITARRA CON UNA DISTORSIÓN MÁS HEAVY QUE EL INTRO TE RECOMIENDO QUE PONGAS UN DELAY- HEAVY METAL:

Riff1
D------9-----9-----9-----9-9-----7-----7-----7-----7-7-----5-----5-----5-----5-5-
A--7-7---7-7---7-7---7-7-----5-5---5-5---5-5---5-5-----3-3---3-3---3-3---3-3-----
E--------------------------------------------------------------------------------

D-----7-----7-----7-----7-7-----9-----9-----9-----9-9--
A-5-5---5-5---5-5---5-5-----7-7---7-7---7-7---7-7------
E------------------------------------------------------

ESTROFAS: TAB1

G-----------------------------------------------7-6-
D--7-9-9-9-9-9-9--7-9-9-9-9-9-9--7-9-9-9-9-9-9--5-4-
A--5-7-7-7-7-7-7--5-7-7-7-7-7-7--5-7-7-7-7-7-7--X-X-
E--X-X-X-X-X-X-X--X-X-X-X-X-X-X--X-X-X-X-X-X-X------

TAB1
Las manos me piden de tanto soñar
herencias perdidas volver a empezar

TAB1
Acude la gente a conciertos de rock
te cortan el pelo y caes en prisión (SEGUNDA VOZ)

TAB1
A toda esa gente de cuero y metal
que siga luchando por su ideal


TAB1
Aunque esos malditos nos quieran pisar
guitarras y voces los derrotarán.    (SEGUNDA VOZ)

CORO: TAB2

G-------------------------7-6------
D-5-5-5-5-5-5-7-7-7-7-7-7-5-4-7-9--
A-3-3-3-3-3-3-5-5-5-5-5-5-X-X-5-7--
E-X-X-X-X-X-X-X-X-X-X-X-X-X-X-X-X--


TAB3
D------5-5-5-5-5-7-7-7-7-7-
A------3-3-3-3-3-5-5-5-5-5-
E------X-X-X-X-X-X-X-X-X-X-

TAB2
Pero no, no nos pueden vencer es la fuerza... del metal (x2)

TAB3
Y les decimos... noooooo... noooooo... noooooo

Riff1 (X1)

AQUÍ YA VA EL SOLO, Y DE IGUAL MANERA SE LO ACOMPAÑA CON EL RIFF1

SOLO: PUEDES USAR EL SOLO DE LA SEGUNDA COLABORACIÓN QUE ESTÁ MÁS O MENOS Y FÁCIL O ESTO:

B |-----------------------------------------------------------------
G |--16~--16/14?-12/10?9~-11?9/10?10/11--11?12--13?15/16-15/16------

B ---------------------------------------------------------------|
G -18-19---20~--22~--22--20~--18--16--14--13?-15-16---15--13--10-|

B -------------------------------------------------------
G ?10-12--13-13?10/12-13-13--10(12)-13-13?-10(12)-13-13--

B ----------------------------------|
G ?10/12-13-13?10/12-13-13----------|


B -----------------------------------------------------12/17~---|
G ?10/12-13-13?10/12-13-13?10/12-13-13--10-13-12----------------|

AL TERMINAR EL SOLO, EL BAJO HACE UNA ESCALA EN MI O:

D-------------0-2--
A-------0-2-3------
E-0-2-3------------

ESTROFAS IGUAL QUE LAS ANTERIORES:

TAB1
Al ir por las calles siempre te ven mal
te dan las espaldas no dejan de hablar

TAB1
Si ellos comprendieran que hay dentro de ti
Al diario es potencia es razón de vivir (SEGUNDA VOZ)


TAB1
A toda esa gente de cuero y metal
que siga luchando por su ideal

TAB1
Aunque esos malditos nos quieran pisar
guitarras y voces los derrotarán.    (SEGUNDA VOZ)


CORO:

TAB2
Pero no, no nos pueden vencer es la fuerza... del metal (x2)

TAB3
Y les decimos... noooooo... noooooo... noooooo  (x2)

TERMINA AHÍ, LO UNICO QUE TIENES QUE TOMAR BIEN ES LOS TIEMPOS Y PONERLE OÍDO... SUERTE¡¡¡¡
Y QUE VIVA EL HEAVY ROCK ECUATORIANO¡¡¡¡


/     /  / / / / /  /     /  / / / / /  / / / /  / / / / /  / / / /
 /   /      /      / /   /      /      /            /      /     /
  / /      /      /   / /      /      /            /      /     /
   /  / / / / /  /     /  / / / / /  / / / /  / / / / /  / / / /

            
            
Suggest correction
Creating personal tab
Creating personal tab
You can edit any tab online and save it as your Personal.

You can edit, replace or remove any tab part or add personal notes – all changes will be seen only by you.

Personal tabs can be accessed anytime from any device, even offline.
Learn more »
Give kudos to tab author, rate the tab!
1 2 3 4 5
comments
print report bad tab
guest
Wanna post a correction for this tab? Suggest correction