Oops, an error
Loading. Please wait.

Extraño Reflejo Tab

23 views 3 this week
no commentswrite comment
1 2 3 4 5
3 more votes to show rating
add to favorites
×
Save as Personal and add changes to this tab that will be seen only by you. Learn more ›
×
You can save this tab as Personal to edit and correct it or add notes. All changes will be seen only by you. Learn more »
save as personal
new!
launch autoscroll
font size
0
reset
how to read this tab
guitar tuner
Autoscroll
slow
fast
+/-
esc
set tempo
stop
introduccion:

guitar 1 (con distorcion)

 G                 F                 G                 F                 G
-3-3-3-3-3-3-3-3-3/1-1-1-1-1-1-1-1-1/3-3-3-3-3-3-3-3-3/1-1-1-1-1-1-1-1-1/3
-3-3-3-3-3-3-3-3-3/1-1-1-1-1-1-1-1-1/3-3-3-3-3-3-3-3-3/1-1-1-1-1-1-1-1-1/3
-4-4-4-4-4-4-4-4-4/2-2-2-2-2-2-2-2-2/4-4-4-4-4-4-4-4-4/2-2-2-2-2-2-2-2-2/4
-5-5-5-5-5-5-5-5-5/3-3-3-3-3-3-3-3-3/5-5-5-5-5-5-5-5-5/3-3-3-3-3-3-3-3-3/5
-5-5-5-5-5-5-5-5-5/3-3-3-3-3-3-3-3-3/5-5-5-5-5-5-5-5-5/3-3-3-3-3-3-3-3-3/5
-3-3-3-3-3-3-3-3-3/1-1-1-1-1-1-1-1-1/3-3-3-3-3-3-3-3-3/1-1-1-1-1-1-1-1-1/3

guitar 2 (con distorcion y delay)        
                                                        (aqui usa el tremolo de la lira)
--------------------------------------------------------------------------
------------------------------------------------------12------------------
---------------------------------------------12-13-14---------------------
--------------------------------------------------------------------------
--------------------------------------------------------------------------
--------------------------------------------------------------------------


verso 1:

guitar 1 (con distorcion)

 G                 F                 G                 F                 G
-3-3-3-3-3-3-3-3-3/1-1-1-1-1-1-1-1-1/3-3-3-3-3-3-3-3-3/1-1-1-1-1-1-1-1-1/3
-3-3-3-3-3-3-3-3-3/1-1-1-1-1-1-1-1-1/3-3-3-3-3-3-3-3-3/1-1-1-1-1-1-1-1-1/3
-4-4-4-4-4-4-4-4-4/2-2-2-2-2-2-2-2-2/4-4-4-4-4-4-4-4-4/2-2-2-2-2-2-2-2-2/4
-5-5-5-5-5-5-5-5-5/3-3-3-3-3-3-3-3-3/5-5-5-5-5-5-5-5-5/3-3-3-3-3-3-3-3-3/5
-5-5-5-5-5-5-5-5-5/3-3-3-3-3-3-3-3-3/5-5-5-5-5-5-5-5-5/3-3-3-3-3-3-3-3-3/5
-3-3-3-3-3-3-3-3-3/1-1-1-1-1-1-1-1-1/3-3-3-3-3-3-3-3-3/1-1-1-1-1-1-1-1-1/3
 
guitar 2 (distorcion y delay)

-8*7-----6*5-------4*3------2*1------8*7-----6*5-------4*3------2*1-------
----8-------6---------4--------2--------8-------6---------4--------2------
--------------------------------------------------------------------------
--------------------------------------------------------------------------
--------------------------------------------------------------------------
--------------------------------------------------------------------------

gutar 1 (con distorcion)

 G                 F                 G                 F                 G
-3-3-3-3-3-3-3-3-3/1-1-1-1-1-1-1-1-1/3-3-3-3-3-3-3-3-3/1-1-1-1-1-1-1-1-1/3
-3-3-3-3-3-3-3-3-3/1-1-1-1-1-1-1-1-1/3-3-3-3-3-3-3-3-3/1-1-1-1-1-1-1-1-1/3
-4-4-4-4-4-4-4-4-4/2-2-2-2-2-2-2-2-2/4-4-4-4-4-4-4-4-4/2-2-2-2-2-2-2-2-2/4
-5-5-5-5-5-5-5-5-5/3-3-3-3-3-3-3-3-3/5-5-5-5-5-5-5-5-5/3-3-3-3-3-3-3-3-3/5
-5-5-5-5-5-5-5-5-5/3-3-3-3-3-3-3-3-3/5-5-5-5-5-5-5-5-5/3-3-3-3-3-3-3-3-3/5
-3-3-3-3-3-3-3-3-3/1-1-1-1-1-1-1-1-1/3-3-3-3-3-3-3-3-3/1-1-1-1-1-1-1-1-1/3
 
guitar 2 (distorcion y delay)

-8*7-----6*5-------4*3------2*1------8*7-----6*5-------4*3------2*1-------
----8-------6---------4--------2--------8-------6---------4--------2------
--------------------------------------------------------------------------
--------------------------------------------------------------------------
--------------------------------------------------------------------------
--------------------------------------------------------------------------


precoro:

guitar 1 (con distorcion)

 E
-5-5-5-5-5-5-5-5-5-5-5-5-5-5-5-5-5-5-5-5-5-5-5-5-5-5-5-5-5-5-5-5-5-5-5
-5-5-5-5-5-5-5-5-5-5-5-5-5-5-5-5-5-5-5-5-5-5-5-5-5-5-5-5-5-5-5-5-5-5-5
-6-6-6-6-6-6-6-6-6-6-6-6-6-6-6-6-6-6-6-6-6-6-6-6-6-6-6-6-6-6-6-6-6-6-6
-7-7-7-7-7-7-7-7-7-7-7-7-7-7-7-7-7-7-7-7-7-7-7-7-7-7-7-7-7-7-7-7-7-7-7
-7-7-7-7-7-7-7-7-7-7-7-7-7-7-7-7-7-7-7-7-7-7-7-7-7-7-7-7-7-7-7-7-7-7-7
-5-5-5-5-5-5-5-5-5-5-5-5-5-5-5-5-5-5-5-5-5-5-5-5-5-5-5-5-5-5-5-5-5-5-5

guitar 2 (en el precoro esta callada)

----------------------------------------------------------------------
----------------------------------------------------------------------
----------------------------------------------------------------------
----------------------------------------------------------------------
----------------------------------------------------------------------
----------------------------------------------------------------------

verso 2 

guitar 1 (con distorcion)

 G                 F                 G                 F                 G
-3-3-3-3-3-3-3-3-3/1-1-1-1-1-1-1-1-1/3-3-3-3-3-3-3-3-3/1-1-1-1-1-1-1-1-1/3
-3-3-3-3-3-3-3-3-3/1-1-1-1-1-1-1-1-1/3-3-3-3-3-3-3-3-3/1-1-1-1-1-1-1-1-1/3
-4-4-4-4-4-4-4-4-4/2-2-2-2-2-2-2-2-2/4-4-4-4-4-4-4-4-4/2-2-2-2-2-2-2-2-2/4
-5-5-5-5-5-5-5-5-5/3-3-3-3-3-3-3-3-3/5-5-5-5-5-5-5-5-5/3-3-3-3-3-3-3-3-3/5
-5-5-5-5-5-5-5-5-5/3-3-3-3-3-3-3-3-3/5-5-5-5-5-5-5-5-5/3-3-3-3-3-3-3-3-3/5
-3-3-3-3-3-3-3-3-3/1-1-1-1-1-1-1-1-1/3-3-3-3-3-3-3-3-3/1-1-1-1-1-1-1-1-1/3
 
guitar 2 (distorcion y delay)

-8*7-----6*5-------4*3------2*1------8*7-----6*5-------4*3------2*1-------
----8-------6---------4--------2--------8-------6---------4--------2------
--------------------------------------------------------------------------
--------------------------------------------------------------------------
--------------------------------------------------------------------------
--------------------------------------------------------------------------

gutar 1 (con distorcion)

 G                 F                 G                 F                 G
-3-3-3-3-3-3-3-3-3/1-1-1-1-1-1-1-1-1/3-3-3-3-3-3-3-3-3/1-1-1-1-1-1-1-1-1/3
-3-3-3-3-3-3-3-3-3/1-1-1-1-1-1-1-1-1/3-3-3-3-3-3-3-3-3/1-1-1-1-1-1-1-1-1/3
-4-4-4-4-4-4-4-4-4/2-2-2-2-2-2-2-2-2/4-4-4-4-4-4-4-4-4/2-2-2-2-2-2-2-2-2/4
-5-5-5-5-5-5-5-5-5/3-3-3-3-3-3-3-3-3/5-5-5-5-5-5-5-5-5/3-3-3-3-3-3-3-3-3/5
-5-5-5-5-5-5-5-5-5/3-3-3-3-3-3-3-3-3/5-5-5-5-5-5-5-5-5/3-3-3-3-3-3-3-3-3/5
-3-3-3-3-3-3-3-3-3/1-1-1-1-1-1-1-1-1/3-3-3-3-3-3-3-3-3/1-1-1-1-1-1-1-1-1/3
 
guitar 2 (distorcion y delay)

-8*7-----6*5-------4*3------2*1------8*7-----6*5-------4*3------2*1-------
----8-------6---------4--------2--------8-------6---------4--------2------
--------------------------------------------------------------------------
--------------------------------------------------------------------------
--------------------------------------------------------------------------
--------------------------------------------------------------------------
 
precoro:

guitar 1 (con distorcion)

 E
-5-5-5-5-5-5-5-5-5-5-5-5-5-5-5-5-5-5-5-5-5-5-5-5-5-5-5-5-5-5-5-5-5-5-5
-5-5-5-5-5-5-5-5-5-5-5-5-5-5-5-5-5-5-5-5-5-5-5-5-5-5-5-5-5-5-5-5-5-5-5
-6-6-6-6-6-6-6-6-6-6-6-6-6-6-6-6-6-6-6-6-6-6-6-6-6-6-6-6-6-6-6-6-6-6-6
-7-7-7-7-7-7-7-7-7-7-7-7-7-7-7-7-7-7-7-7-7-7-7-7-7-7-7-7-7-7-7-7-7-7-7
-7-7-7-7-7-7-7-7-7-7-7-7-7-7-7-7-7-7-7-7-7-7-7-7-7-7-7-7-7-7-7-7-7-7-7
-5-5-5-5-5-5-5-5-5-5-5-5-5-5-5-5-5-5-5-5-5-5-5-5-5-5-5-5-5-5-5-5-5-5-5

guitar 2 (en el precoro esta callada)

----------------------------------------------------------------------
----------------------------------------------------------------------
----------------------------------------------------------------------
----------------------------------------------------------------------
----------------------------------------------------------------------
----------------------------------------------------------------------
coro:

guitar 1(con distorcion)

 C               G                 E
-0-0-0-0-0-0-0-0--3-3-3-3-3-3-3-3--5-5-5-5-5-5-5-5--5-5-5-5-5-5-5-5---
-1-1-1-1-1-1-1-1--3-3-3-3-3-3-3-3--5-5-5-5-5-5-5-5--5-5-5-5-5-5-5-5---
-0-0-0-0-0-0-0-0--4-4-4-4-4-4-4-4--6-6-6-6-6-6-6-6--5-5-5-5-5-5-5-5---
-2-2-2-2-2-2-2-2--5-5-5-5-5-5-5-5--7-7-7-7-7-7-7-7--5-5-5-5-5-5-5-5---
-3-3-3-3-3-3-3-3--5-5-5-5-5-5-5-5--7-7-7-7-7-7-7-7--7-7-7-7-7-7-7-7---
-0-0-0-0-0-0-0-0--3-3-3-3-3-3-3-3--5-5-5-5-5-5-5-5--5-5-5-5-5-5-5-5---

guitar 2 (con distorcion)
(solo hace un acorde)

 C                G                E
-0----------------3----------------5----------------5-----------------
-1----------------3----------------5----------------5-----------------
-0----------------4----------------6----------------5-----------------
-2----------------5----------------7----------------5-----------------
-3----------------5----------------7----------------7-----------------
-0----------------3----------------5----------------5-----------------


guitar 1(con distorcion)

 C               G                 E
-0-0-0-0-0-0-0-0--3-3-3-3-3-3-3-3--5-5-5-5-5-5-5-5--5-5-5-5-5-5-5-5---
-1-1-1-1-1-1-1-1--3-3-3-3-3-3-3-3--5-5-5-5-5-5-5-5--5-5-5-5-5-5-5-5---
-0-0-0-0-0-0-0-0--4-4-4-4-4-4-4-4--6-6-6-6-6-6-6-6--5-5-5-5-5-5-5-5---
-2-2-2-2-2-2-2-2--5-5-5-5-5-5-5-5--7-7-7-7-7-7-7-7--5-5-5-5-5-5-5-5---
-3-3-3-3-3-3-3-3--5-5-5-5-5-5-5-5--7-7-7-7-7-7-7-7--7-7-7-7-7-7-7-7---
-0-0-0-0-0-0-0-0--3-3-3-3-3-3-3-3--5-5-5-5-5-5-5-5--5-5-5-5-5-5-5-5---

guitar 2 (con distorcion)
(solo hace un acorde)

 C                G                E
-0----------------3----------------5----------------5-----------------
-1----------------3----------------5----------------5-----------------
-0----------------4----------------6----------------5-----------------
-2----------------5----------------7----------------5-----------------
-3----------------5----------------7----------------7-----------------
-0----------------3----------------5----------------5-----------------

verso 3 

guitar 1 (con distorcion)

 G                 F                 G                 F                 G
-3-3-3-3-3-3-3-3-3/1-1-1-1-1-1-1-1-1/3-3-3-3-3-3-3-3-3/1-1-1-1-1-1-1-1-1/3
-3-3-3-3-3-3-3-3-3/1-1-1-1-1-1-1-1-1/3-3-3-3-3-3-3-3-3/1-1-1-1-1-1-1-1-1/3
-4-4-4-4-4-4-4-4-4/2-2-2-2-2-2-2-2-2/4-4-4-4-4-4-4-4-4/2-2-2-2-2-2-2-2-2/4
-5-5-5-5-5-5-5-5-5/3-3-3-3-3-3-3-3-3/5-5-5-5-5-5-5-5-5/3-3-3-3-3-3-3-3-3/5
-5-5-5-5-5-5-5-5-5/3-3-3-3-3-3-3-3-3/5-5-5-5-5-5-5-5-5/3-3-3-3-3-3-3-3-3/5
-3-3-3-3-3-3-3-3-3/1-1-1-1-1-1-1-1-1/3-3-3-3-3-3-3-3-3/1-1-1-1-1-1-1-1-1/3
 
guitar 2 (distorcion y delay)

-8*7-----6*5-------4*3------2*1------8*7-----6*5-------4*3------2*1-------
----8-------6---------4--------2--------8-------6---------4--------2------
--------------------------------------------------------------------------
--------------------------------------------------------------------------
--------------------------------------------------------------------------
--------------------------------------------------------------------------

gutar 1 (con distorcion)

 G                 F                 G                 F                 G
-3-3-3-3-3-3-3-3-3/1-1-1-1-1-1-1-1-1/3-3-3-3-3-3-3-3-3/1-1-1-1-1-1-1-1-1/3
-3-3-3-3-3-3-3-3-3/1-1-1-1-1-1-1-1-1/3-3-3-3-3-3-3-3-3/1-1-1-1-1-1-1-1-1/3
-4-4-4-4-4-4-4-4-4/2-2-2-2-2-2-2-2-2/4-4-4-4-4-4-4-4-4/2-2-2-2-2-2-2-2-2/4
-5-5-5-5-5-5-5-5-5/3-3-3-3-3-3-3-3-3/5-5-5-5-5-5-5-5-5/3-3-3-3-3-3-3-3-3/5
-5-5-5-5-5-5-5-5-5/3-3-3-3-3-3-3-3-3/5-5-5-5-5-5-5-5-5/3-3-3-3-3-3-3-3-3/5
-3-3-3-3-3-3-3-3-3/1-1-1-1-1-1-1-1-1/3-3-3-3-3-3-3-3-3/1-1-1-1-1-1-1-1-1/3
 
guitar 2 (distorcion y delay)

-8*7-----6*5-------4*3------2*1------8*7-----6*5-------4*3------2*1-------
----8-------6---------4--------2--------8-------6---------4--------2------
--------------------------------------------------------------------------
--------------------------------------------------------------------------
--------------------------------------------------------------------------
--------------------------------------------------------------------------
 
precoro:

guitar 1 (con distorcion)

 E
-5-5-5-5-5-5-5-5-5-5-5-5-5-5-5-5-5-5-5-5-5-5-5-5-5-5-5-5-5-5-5-5-5-5-5
-5-5-5-5-5-5-5-5-5-5-5-5-5-5-5-5-5-5-5-5-5-5-5-5-5-5-5-5-5-5-5-5-5-5-5
-6-6-6-6-6-6-6-6-6-6-6-6-6-6-6-6-6-6-6-6-6-6-6-6-6-6-6-6-6-6-6-6-6-6-6
-7-7-7-7-7-7-7-7-7-7-7-7-7-7-7-7-7-7-7-7-7-7-7-7-7-7-7-7-7-7-7-7-7-7-7
-7-7-7-7-7-7-7-7-7-7-7-7-7-7-7-7-7-7-7-7-7-7-7-7-7-7-7-7-7-7-7-7-7-7-7
-5-5-5-5-5-5-5-5-5-5-5-5-5-5-5-5-5-5-5-5-5-5-5-5-5-5-5-5-5-5-5-5-5-5-5

guitar 2 (en el precoro esta callada)

----------------------------------------------------------------------
----------------------------------------------------------------------
----------------------------------------------------------------------
----------------------------------------------------------------------
----------------------------------------------------------------------
----------------------------------------------------------------------
coro:

guitar 1(con distorcion)

 C               G                 E
-0-0-0-0-0-0-0-0--3-3-3-3-3-3-3-3--5-5-5-5-5-5-5-5--5-5-5-5-5-5-5-5---
-1-1-1-1-1-1-1-1--3-3-3-3-3-3-3-3--5-5-5-5-5-5-5-5--5-5-5-5-5-5-5-5---
-0-0-0-0-0-0-0-0--4-4-4-4-4-4-4-4--6-6-6-6-6-6-6-6--5-5-5-5-5-5-5-5---
-2-2-2-2-2-2-2-2--5-5-5-5-5-5-5-5--7-7-7-7-7-7-7-7--5-5-5-5-5-5-5-5---
-3-3-3-3-3-3-3-3--5-5-5-5-5-5-5-5--7-7-7-7-7-7-7-7--7-7-7-7-7-7-7-7---
-0-0-0-0-0-0-0-0--3-3-3-3-3-3-3-3--5-5-5-5-5-5-5-5--5-5-5-5-5-5-5-5---

guitar 2 (con distorcion)
(solo hace un acorde)

 C                G                E
-0----------------3----------------5----------------5-----------------
-1----------------3----------------5----------------5-----------------
-0----------------4----------------6----------------5-----------------
-2----------------5----------------7----------------5-----------------
-3----------------5----------------7----------------7-----------------
-0----------------3----------------5----------------5-----------------


guitar 1(con distorcion)

 C               G                 E
-0-0-0-0-0-0-0-0--3-3-3-3-3-3-3-3--5-5-5-5-5-5-5-5--5-5-5-5-5-5-5-5---
-1-1-1-1-1-1-1-1--3-3-3-3-3-3-3-3--5-5-5-5-5-5-5-5--5-5-5-5-5-5-5-5---
-0-0-0-0-0-0-0-0--4-4-4-4-4-4-4-4--6-6-6-6-6-6-6-6--5-5-5-5-5-5-5-5---
-2-2-2-2-2-2-2-2--5-5-5-5-5-5-5-5--7-7-7-7-7-7-7-7--5-5-5-5-5-5-5-5---
-3-3-3-3-3-3-3-3--5-5-5-5-5-5-5-5--7-7-7-7-7-7-7-7--7-7-7-7-7-7-7-7---
-0-0-0-0-0-0-0-0--3-3-3-3-3-3-3-3--5-5-5-5-5-5-5-5--5-5-5-5-5-5-5-5---

guitar 2 (con distorcion)
(solo hace un acorde)

 C                G                E
-0----------------3----------------5----------------5-----------------
-1----------------3----------------5----------------5-----------------
-0----------------4----------------6----------------5-----------------
-2----------------5----------------7----------------5-----------------
-3----------------5----------------7----------------7-----------------
-0----------------3----------------5----------------5-----------------


entonces viene el solo:


-12*15*17*15*12*15*1715*12*15*17*15*12*15*17*15*12*15*17*15*12*15*17*
----------------------------------------------------------------------
----------------------------------------------------------------------
----------------------------------------------------------------------
----------------------------------------------------------------------
----------------------------------------------------------------------
----------------------------------------------------------------------

-15*12*15*17*15*12*15*17*15*12*15*17*15*12*15*18*15*12*15*18*15*12*15*
----------------------------------------------------------------------
----------------------------------------------------------------------
----------------------------------------------------------------------
----------------------------------------------------------------------
----------------------------------------------------------------------

-15*12*15*17*15*12*15*17*15*12*15*17*15*12*15*18*15*12*15*18*15*12*15*
----------------------------------------------------------------------
----------------------------------------------------------------------
----------------------------------------------------------------------
----------------------------------------------------------------------
----------------------------------------------------------------------

-18/-18/-18/-12*13*14*12*13*14*12*13*14*12*13*14*12*13*14*12*13*14*12*
----------------------------------------------------------------------
----------------------------------------------------------------------
----------------------------------------------------------------------
----------------------------------------------------------------------
----------------------------------------------------------------------

12*13*14*12*13*14*12*13*14*12*13*14*12*13*14*12*13*14*12*13*14*12*13*
----------------------------------------------------------------------
----------------------------------------------------------------------
----------------------------------------------------------------------
----------------------------------------------------------------------
----------------------------------------------------------------------

-14*15*13*14*15*13*14*15*13*14*15*13*14*15*15/-15/-15/----------------
------------------------------------------------------14*15*16*14*15*-
----------------------------------------------------------------------
----------------------------------------------------------------------
----------------------------------------------------------------------
----------------------------------------------------------------------

----------------------------------------------------------------------
-16*14*15*16*14*15*16*14*15*16*14*15*16*14*15*16*14*15*16*14*15*16*14*
----------------------------------------------------------------------
----------------------------------------------------------------------
----------------------------------------------------------------------
----------------------------------------------------------------------

----------------------------------------------------------------------
-16*14*15*16*14*15*16*14*15*16*14*15*16*14*15*16*14*15*16/-16/-16/----
----------------------------------------------------------------------
----------------------------------------------------------------------
----------------------------------------------------------------------
----------------------------------------------------------------------

precoro:

guitar 1 (con distorcion)

 E
-5-5-5-5-5-5-5-5-5-5-5-5-5-5-5-5-5-5-5-5-5-5-5-5-5-5-5-5-5-5-5-5-5-5-5
-5-5-5-5-5-5-5-5-5-5-5-5-5-5-5-5-5-5-5-5-5-5-5-5-5-5-5-5-5-5-5-5-5-5-5
-6-6-6-6-6-6-6-6-6-6-6-6-6-6-6-6-6-6-6-6-6-6-6-6-6-6-6-6-6-6-6-6-6-6-6
-7-7-7-7-7-7-7-7-7-7-7-7-7-7-7-7-7-7-7-7-7-7-7-7-7-7-7-7-7-7-7-7-7-7-7
-7-7-7-7-7-7-7-7-7-7-7-7-7-7-7-7-7-7-7-7-7-7-7-7-7-7-7-7-7-7-7-7-7-7-7
-5-5-5-5-5-5-5-5-5-5-5-5-5-5-5-5-5-5-5-5-5-5-5-5-5-5-5-5-5-5-5-5-5-5-5

guitar 2 (en el precoro esta callada)

----------------------------------------------------------------------
----------------------------------------------------------------------
----------------------------------------------------------------------
----------------------------------------------------------------------
----------------------------------------------------------------------
----------------------------------------------------------------------

coro:

guitar 1(con distorcion)

 C               G                 E
-0-0-0-0-0-0-0-0--3-3-3-3-3-3-3-3--5-5-5-5-5-5-5-5--5-5-5-5-5-5-5-5---
-1-1-1-1-1-1-1-1--3-3-3-3-3-3-3-3--5-5-5-5-5-5-5-5--5-5-5-5-5-5-5-5---
-0-0-0-0-0-0-0-0--4-4-4-4-4-4-4-4--6-6-6-6-6-6-6-6--5-5-5-5-5-5-5-5---
-2-2-2-2-2-2-2-2--5-5-5-5-5-5-5-5--7-7-7-7-7-7-7-7--5-5-5-5-5-5-5-5---
-3-3-3-3-3-3-3-3--5-5-5-5-5-5-5-5--7-7-7-7-7-7-7-7--7-7-7-7-7-7-7-7---
-0-0-0-0-0-0-0-0--3-3-3-3-3-3-3-3--5-5-5-5-5-5-5-5--5-5-5-5-5-5-5-5---

guitar 2 (vuelve hacer el solo)

-12*15*17*15*12*15*1715*12*15*17*15*12*15*17*15*12*15*17*15*12*15*17*
----------------------------------------------------------------------
----------------------------------------------------------------------
----------------------------------------------------------------------
----------------------------------------------------------------------
----------------------------------------------------------------------
----------------------------------------------------------------------

-15*12*15*17*15*12*15*17*15*12*15*17*15*12*15*18*15*12*15*18*15*12*15*
----------------------------------------------------------------------
----------------------------------------------------------------------
----------------------------------------------------------------------
----------------------------------------------------------------------
----------------------------------------------------------------------

-15*12*15*17*15*12*15*17*15*12*15*17*15*12*15*18*15*12*15*18*15*12*15*
----------------------------------------------------------------------
----------------------------------------------------------------------
----------------------------------------------------------------------
----------------------------------------------------------------------
----------------------------------------------------------------------

-18/-18/-18/-12*13*14*12*13*14*12*13*14*12*13*14*12*13*14*12*13*14*12*
----------------------------------------------------------------------
----------------------------------------------------------------------
----------------------------------------------------------------------
----------------------------------------------------------------------
----------------------------------------------------------------------

12*13*14*12*13*14*12*13*14*12*13*14*12*13*14*12*13*14*12*13*14*12*13*
----------------------------------------------------------------------
----------------------------------------------------------------------
----------------------------------------------------------------------
----------------------------------------------------------------------
----------------------------------------------------------------------

-14*15*13*14*15*13*14*15*13*14*15*13*14*15*15/-15/-15/----------------
------------------------------------------------------14*15*16*14*15*-
----------------------------------------------------------------------
----------------------------------------------------------------------
----------------------------------------------------------------------
----------------------------------------------------------------------

----------------------------------------------------------------------
-16*14*15*16*14*15*16*14*15*16*14*15*16*14*15*16*14*15*16*14*15*16*14*
----------------------------------------------------------------------
----------------------------------------------------------------------
----------------------------------------------------------------------
----------------------------------------------------------------------

----------------------------------------------------------------------
-16*14*15*16*14*15*16*14*15*16*14*15*16*14*15*16*14*15*16/-16/-16/----
----------------------------------------------------------------------
----------------------------------------------------------------------
----------------------------------------------------------------------
----------------------------------------------------------------------
y despues hace un arreglo la guitarra y la bataca

16/-16/-16/-16/-14-15-19/-19/-19/-16----------------------------------
----------------------------------------------------------------------
----------------------------------------------------------------------
----------------------------------------------------------------------
----------------------------------------------------------------------
----------------------------------------------------------------------

alguna correcion es bienvenida!!!!!!!!!

despues del solo no me acuerdo si vuelve hcer el precoro pero por las dudas
ahi se los  distorcion que usa la guitarra 1 es overdrive y la que 
utiliza la guitarra 2 es el pedal fuzz.
(este solo es uno de los mejores que se han hechos)
Suggest correction
Give kudos to tab author, rate the tab!
1 2 3 4 5
comments
print report bad tab
guest
Wanna post a correction for this tab? Suggest correction