Oops, an error
Loading. Please wait.

Ya Lo Había Dejado Tab

9 views 1 this week
no commentswrite comment
1 2 3 4 5
3 more votes to show rating
add to favorites
launch autoscroll
font size
0
reset
how to read this tab
guitar tuner
×
Best way to learn
"Ya Lo Había Dejado"
Autoscroll
slow
fast
+/-
esc
set tempo
stop
Tabbed by Nestor Sadao Arechiga Cervantes

Well, I that it is a beautiful song hopes them to like and I soon will send them the next songs of this so good group
I believe that it is of the best that has Mexico.
well it is everything I hope them to like  


 First guitar 
----0---0---0---0---0---0---0---0--------
---4---4---4---4---4---4---4---4---------
--6---6---6---6---5---5---5---5----------
-6---6---6---6---6---6---6---6-----------
-----------------------------------------
-----------------------------------------

Second guitar
-----------------------------------------
-----------------------------------------
--13/-----12/-----13/-----12/------------
-----------------------------------------
-----------------------------------------
-----------------------------------------

This makes him during all the verses
and after, in the chorus make sometimes

First guitar
-4-4-4-4-4-4-4-4-4-4-4-4-4-4-------------
-5-5-5-5-5-5-5-4-4-4-4-4-4-4-------------
-6-6-6-6-6-6-6-4-4-4-4-4-4-4-------------
-6-6-6-6-6-6-6-6-6-6-6-6-6-6-------------
-4-4-4-4-4-4-4-6-6-6-6-6-6-6-------------
-4-4-4-4-4-4-4-4-4-4-4-4-4-4-------------

Second guitar
-4--4----4-----4--4----4-----------------
-5--5---5-5-5--4--4---4-4-4--------------
-6--6--6---6---4--4--4---4---------------
-6--6----------6--6----------------------
-4--4----------6--6----------------------
-4--4----------4--4----------------------

Then solo
-12h14p12h14p12h14p12h14p12h14p12h14p12h1412h14p12h14p12h14p12h14p12h14p12h14p12h14
----------------------------------------------------------------------------------
----------------------------------------------------------------------------------
----------------------------------------------------------------------------------
----------------------------------------------------------------------------------
----------------------------------------------------------------------------------

12h14p12h14p12h14p12h14p12h14p12h14p12h1412h14p12h14p12h14p12h14p12h14p12h14p12h14
----------------------------------------------------------------------------------
----------------------------------------------------------------------------------
----------------------------------------------------------------------------------
----------------------------------------------------------------------------------
----------------------------------------------------------------------------------

12h14p12h14p12h14p12h14p12h14p12h14p12h1412/-12/-12/-12/-12/-12/--12-----13--15/-15/
--------------------------------------------------------------------14--14-15---------
----------------------------------------------------------------------------------
----------------------------------------------------------------------------------
----------------------------------------------------------------------------------
----------------------------------------------------------------------------------

12/-12/-12/-12/-12/-12/--12-----13-15/-15/-----------------------------------------
-----------------------14--14-15----------12h14p12h14p12h14p12h14p12h14p12---------
--------------------------------------------------------------------------15/-15/-
----------------------------------------------------------------------------------
----------------------------------------------------------------------------------
----------------------------------------------------------------------------------

----------------------------------------------------------------------------------
--------------------------------------------------------------------16-15-14-15/--
-15/-14/-14-14-15/-15/-15/-14/-14-14-15/--15/-15/-14/-14-14-16-14-15--------------
----------------------------------------------------------------------------------
----------------------------------------------------------------------------------
----------------------------------------------------------------------------------

----------------------------------------------------------------------------------
-15/-15/-14/-14-14-15/-15/-15/-14/-14-14-15/-15/-15/-14/-14-14-16-14-15----------
-------------------------------------------------------------------------16-15-14-
----------------------------------------------------------------------------------
----------------------------------------------------------------------------------
----------------------------------------------------------------------------------
Suggest correction
Give kudos to tab author, rate the tab!
1 2 3 4 5
comments
print report bad tab
guest
You may want to rate the tab now too:
select rating
Wanna post a correction for this tab? Suggest correction