Oops, an error
Loading. Please wait.

El Día Que Apagaron La Luz Tab

100 views 6 this week
no commentswrite comment
1 2 3 4 5
3 more votes to show rating
add to favorites
launch autoscroll
font size
0
reset
how to read this tab
guitar tuner
Autoscroll
slow
fast
+/-
esc
set tempo
stop
En estos días que están pasando...


e--------5--7--5----5----(5)--------------------------
b--5--8----------8-----5------8-----------------------
g-----------------------------------------------------
D-----------------------------------------------------
A-----------------------------------------------------
E-----------------------------------------------------


Yo sé muy bien que me estás buscando

e--------5--7--5---5----5-----------------------------
b--5--8----------8---5-----8--------------------------
g-----------------------------------------------------
D-----------------------------------------------------
A-----------------------------------------------------
E-----------------------------------------------------


Querés saber lo que hicimos, el día que apagaron la luz.

e--------5--7--5----5-------------5-----7--5----------
b--5--8----------8-----5---5--88-----8--------88------
g-----------------------------------------------------
D-----------------------------------------------------
A-----------------------------------------------------
E-----------------------------------------------------


Con esa música que hay ahora

e--------5--7--5----5----(5)--------------------------
b--5--8-----------8-----5------8----------------------
g-----------------------------------------------------
D-----------------------------------------------------
A-----------------------------------------------------
E-----------------------------------------------------


No entiendo bien por qué estás tan sola

e--------5--7--5---5----5-----------------------------
b--5--8----------8---5-----8--------------------------
g-----------------------------------------------------
D-----------------------------------------------------
A-----------------------------------------------------
E-----------------------------------------------------


Paralizando la tierra, el día que apagaron la luz.

e--------5--7--5----5-------------5-----7--5----------
b--5--8----------8-----5---5--88-----8--------88------
g-----------------------------------------------------
D-----------------------------------------------------
A-----------------------------------------------------
E-----------------------------------------------------


No podés ver que ya me pertenecés.

e-----7--10-10--8-7-----------------------------------
b--8----------------10--8---12--(12)---10/12----------
g-----------------------------------------------------
D-----------------------------------------------------
A-----------------------------------------------------
E-----------------------------------------------------


Yo puedo ver casi todo lo que hacés...

e-----7--10-10--8-7--------7--------------------------
b--8----------------10--8-----10-----8------10--------
g-----------------------------------------------------
D-----------------------------------------------------
A-----------------------------------------------------
E-----------------------------------------------------


Por eso...

e-----------------------------------------------------
b---5--8--5--8----------------------------------------
g-----------------------------------------------------
D-----------------------------------------------------
A-----------------------------------------------------
E-----------------------------------------------------


Llegará el día en que estemos juntos

e--------5---7--5----5----(5)-------------------------
b--5--8------------8----5------8----------------------
g-----------------------------------------------------
D-----------------------------------------------------
A-----------------------------------------------------
E-----------------------------------------------------


Haciendo todo para este mundo

e--------5--7--5---5----5-----------------------------
b--5--8----------8---5-----8--------------------------
g-----------------------------------------------------
D-----------------------------------------------------
A-----------------------------------------------------
E-----------------------------------------------------


Paralizando la tierra, el día que apagaron la luz.

e--------5--7--5----5-------------5-----7--5----------
b--5--8----------8-----5---5--88-----8--------88------
g-----------------------------------------------------
D-----------------------------------------------------
A-----------------------------------------------------
E-----------------------------------------------------


Sigue repitiendo "El día que apagaron la luz..."
Suggest correction
Give kudos to tab author, rate the tab!
1 2 3 4 5
comments
print report bad tab
guest
Wanna post a correction for this tab? Suggest correction