Oops, an error
Loading. Please wait.

La Niña Juega En El Gran Jardín Tab

16 views 1 this week
no commentswrite comment
1 2 3 4 5
3 more votes to show rating
add to favorites
launch autoscroll
font size
0
reset
how to read this tab
guitar tuner
Autoscroll
slow
fast
+/-
esc
set tempo
stop
Help us to improve Ultimate-Guitar.com Take our survey!
×
He aquí mi versión de este tema tan bueno que escribió e interpreta
Rinaldo Ranfelli en el adiós sui generis

D        F#m  Bm            F#m
La niña juega en el gran jardín
G      D         A
 alucinando a un niño,
D        F#m         Bm       F#m
hada del bosque, princesa del sol,
G      D   C  A
 reina sin saber
           G         A        D   F#m
que cuando sale a buscar su identidad
      Em     G        A
en el parque  o en el lago
         G         A   G    D      C
sólo encuentra su voz  y un gato gris
      A      G        A7
que cuelga frío de un árbol
D       F#m      Bm        F#m
la niña baja la vista y se va
G           D  A7  D  Dm D9 (arpegeados)
 ya es hora de ce-nar...

después se hace un silencio corto y luego se comienza a arpegear
D, Dm y D9 rápido y se regresa a D ahí se arpegea poquito y luego...

E|-0-2-3-0-2-3---------------------0-2--3-0---2--3----
A|-----------------0-2-3-0-2-3----------------------0--
                                   A la cama sin cenar

E|----------------------------0-2--3--0-2-3------------
A|2--3--0-2--3------------------------------0---2--3---
D|-----------------------------------------------------
g|--------------2-2-2-2-2-2----------------------------
b|--------------2-2-2-2-2-2----------------------------
e|--------------2-2-2-2-2-2----------------------------
  no se debe mataaaar...      eres tu educación no se

E|-----------------------------------
A|-0-2--3--------------------0--2--4-
D|-----------------------------------
g|---------2-2-2-2-2-2---------------
b|---------3-3-3-3-3-3---------------
e|---------2-2-2-2-2-2---------------
   debe mataaaaaaaaaar...


D          F#m       Bm      F#m
sola en su cuarto de mármol azul
G           D         A
 sueña que sueña un espejo
D          F#m      Bm       F#m
donde la imagen de su sexo está
G    D    C     A7
 pronta a despertar,
         G          A       D   F#m
y cuando sale a buscar su identidad
      Em     G        A
en el parque  o en el lago

       G           A   G   D    C
sólo encuentra su voz  y a la mucama
     A     G          A7
que duerme roja y sin vida
D       F#m     Bm         F#m
la niña baja la vista otra vez
G             D    A7   D   Dm D9 (arpegeados) y acaba en D
las flores le hacen mal...

este tema es sumamente fácil, espero que me entiendan como
lo explique, si no, si tienen dudas, comentarios, quejas, etc.
a mi mail: sodamaniac@

ando buscando baijsta, guitarrista y baterista con influencias
de sui generis, seru girán, charly, spinetta y todo eso para tocar
en un grupo en Tijuana B.C., México, interesados a mi mail.

Eso es todo, chau y aguante sui!
Suggest correction
Give kudos to tab author, rate the tab!
1 2 3 4 5
comments
print report bad tab
guest
You may want to rate the tab now too:
select rating
Wanna post a correction for this tab? Suggest correction