Oops, an error
Loading. Please wait.

Las Increíbles Aventuras Del Señor Tijeras Tab

26 views 1 this week
no commentswrite comment
1 2 3 4 5
3 more votes to show rating
add to favorites
×
Save as Personal and add changes to this tab that will be seen only by you. Learn more ›
×
You can save this tab as Personal to edit and correct it or add notes. All changes will be seen only by you. Learn more »
save as personal
new!
launch autoscroll
font size
0
reset
how to read this tab
guitar tuner
Autoscroll
slow
fast
+/-
esc
set tempo
stop
Sonido de tijeras por aproximadamente 7 seg.

    D                   C/D       G/D
e|--2---2-2-2-2---2-2-2-3---3-3-3-3---3-3-3--|
B|*-3---3-3-3-3---3-3-3-5---5-5-5-3---3-3-3-*|
G|--2---2-2-2-2---2-2-2-5---5-5-5-0---0-0-0--|
D|--0---0-0-0-0---0-0-0-0---0-0-0-0---0-0-0--|
A|*-----------------------------------------*|
E|-------------------------------------------|

1er Verso:

e|-2---2-2-2-2---2-2-2-3---3-3-3-3---3-3-3-|
B|-3---3-3-3-3---3-3-3-5---5-5-5-3---3-3-3-|
G|-2---2-2-2-2---2-2-2-5---5-5-5-0---0-0-0-|
D|-0---0-0-0-0---0-0-0-0---0-0-0-0---0-0-0-|
A|-----------------------------------------|
E|-----------------------------------------|
   escondido       atrás de su escritorio

e|-2---2-2-2-2---2-2-2-3---3-3-3-3---3-3-3-|
B|-3---3-3-3-3---3-3-3-5---5-5-5-3---3-3-3-|
G|-2---2-2-2-2---2-2-2-5---5-5-5-0---0-0-0-|
D|-0---0-0-0-0---0-0-0-0---0-0-0-0---0-0-0-|
A|-----------------------------------------|
E|-----------------------------------------|
 |
e|-----------------------------------------|
B|-----------------------------------------|
G|-----------------------------------------|
D|-----------------------------------------|
A|-----------------------------3-2-0-------|
D|-----------------------------------5-3-2-|
   vi___________

e|-2---2-2-2-2---2-2-2-3---3-3-3-3---3-3-3-|
B|-3---3-3-3-3---3-3-3-5---5-5-5-3---3-3-3-|
G|-2---2-2-2-2---2-2-2-5---5-5-5-0---0-0-0-|
D|-0---0-0-0-0---0-0-0-0---0-0-0-0---0-0-0-|
A|-----------------------------------------|
E|-----------------------------------------|
 |
e|-----------------------------------------|
B|-----------------------------------------|
G|-----------------------------------------|
D|-----------------------------------------|
A|-----------------------------------------|
D|-0---------------------------------------|
    Un  ser  vajo  pequeño correcto y  gen-

e|-2---2-2-2-2-----------------------------|
B|-3---3-3-3-3-----------------------------|
G|-2---2-2-2-2-----------------------------|
D|-0---0-0-0-0-----------------------------|
A|-----------------------------------------|
E|-----------------------------------------|
   ti___________l

   Em    G        A      A4
e|-0-----3--------0------0-----|
B|-0-----3--------2------3-----|
G|-0-----0--------2------2-----|
D|-2-----0--------2------2-----|
A|-2-----2--------0------0-----|
E|-0-----3---------------------|
 |
e|-----------------------------|
B|-----------------------------|
G|-----------------------------|
D|-----------------------------|
A|-----------------------------|
D|-----------------------------|
   Atiende los teléfonos y nunca

   D     Eb    D     Eb    D     Eb    D     Eb
e|-------------------------------------------------|
B|-3-3-3-4-4-4-3-3-3-4-4-4-3-3-3-4-4-4-3-3-3-4-4-4-|
G|-2-2-2-3-3-3-2-2-2-3-3-3-2-2-2-3-3-3-2-2-2-3-3-3-|
D|-------------------------------------------------|
A|-------------------------------------------------|
E|-------------------------------------------------|
 |
e|-------------------------------------------------|
B|-------------------------------------------------|
G|---7---8---8---7---8---8---7---8---8---7---8---8-|
D|-7---7---8---7---7---8---7---7---8---7---7---8---|
A|-------------------------------------------------|
D|-------------------------------------------------|
 está

   Em    G        A      A4       Bm      E            A
e|-0-----3--------0------0-----|--2-------0------------0--|
B|-0-----3--------2------3-----|--3-------0------------2--|
G|-0-----0--------2------2-----|--4-------1------------2--|
D|-2-----0--------2------2-----|--4-------2------------2--|
A|-2-----2--------0------0-----|--2-------2------------0--|
E|-0-----3---------------------|----------0---------------|
 |
e|-----------------------------|--------------------------|
B|-----------------------------|--------------------------|
G|-----------------------------|--------------------------|
D|-----------------------------|--------------------------|
A|-----------------------------|-----------------------0--|
D|-----------------------------|--------------------------|
   Mira a su secretaria imaginandola, desnuda y en su cama


e|-----------------------------|
B|-----------------------------|
G|-----------------------------|
D|-----------------------------|
A|-----------------------------|
E|-----------------------------|
 |
e|-----------------------------|
B|-----------------------------|
G|-----------------------------|
D|-----------------------------|
A|-----------------------------|
D|-5---4---0-------------------|
                Y vuelve a traba-

    D                   C/D       G/D
e|--2---2-2-2-2---2-2-2-3---3-3-3-3---3-3-3--|
B|*-3---3-3-3-3---3-3-3-5---5-5-5-3---3-3-3-*|
G|--2---2-2-2-2---2-2-2-5---5-5-5-0---0-0-0--|
D|--0---0-0-0-0---0-0-0-0---0-0-0-0---0-0-0--|
A|*-----------------------------------------*|
E|-------------------------------------------|
   jar

2do Verso:

e|-2---2-2-2-2---2-2-2-3---3-3-3-3---3-3-3-|
B|-3---3-3-3-3---3-3-3-5---5-5-5-3---3-3-3-|
G|-2---2-2-2-2---2-2-2-5---5-5-5-0---0-0-0-|
D|-0---0-0-0-0---0-0-0-0---0-0-0-0---0-0-0-|
A|-----------------------------------------|
E|-----------------------------------------|
   entra en  el  microcine  y   toma  ubuca-

e|-2---2-2-2-2---2-2-2-3---3-3-3-3---3-3-3-|
B|-3---3-3-3-3---3-3-3-5---5-5-5-3---3-3-3-|
G|-2---2-2-2-2---2-2-2-5---5-5-5-0---0-0-0-|
D|-0---0-0-0-0---0-0-0-0---0-0-0-0---0-0-0-|
A|-----------------------------------------|
E|-----------------------------------------|
 |
e|-----------------------------------------|
B|-----------------------------------------|
G|-----------------------------------------|
D|-----------------------------------------|
A|-----------------------------3-2-0-------|
D|-----------------------------------5-3-2-|
   ció___________n

e|-2---2-2-2-2---2-2-2-3---3-3-3-3---3-3-3-|
B|-3---3-3-3-3---3-3-3-5---5-5-5-3---3-3-3-|
G|-2---2-2-2-2---2-2-2-5---5-5-5-0---0-0-0-|
D|-0---0-0-0-0---0-0-0-0---0-0-0-0---0-0-0-|
A|-----------------------------------------|
E|-----------------------------------------|
 |
e|-----------------------------------------|
B|-----------------------------------------|
G|-----------------------------------------|
D|-----------------------------------------|
A|-----------------------------------------|
D|-0---------------------------------------|
    hace  gestos  y  habla  sin   defini-

e|-2---2-2-2-2-----------------------------|
B|-3---3-3-3-3-----------------------------|
G|-2---2-2-2-2-----------------------------|
D|-0---0-0-0-0-----------------------------|
A|-----------------------------------------|
E|-----------------------------------------|
   ció___________n

   Em    G        A      A4
e|-0-----3--------0------0-----|
B|-0-----3--------2------3-----|
G|-0-----0--------2------2-----|
D|-2-----0--------2------2-----|
A|-2-----2--------0------0-----|
E|-0-----3---------------------|
 |
e|-----------------------------|
B|-----------------------------|
G|-----------------------------|
D|-----------------------------|
A|-----------------------------|
D|-----------------------------|
   se va con la película hasta su

   D     Eb    D     Eb    D     Eb    D     Eb
e|-------------------------------------------------|
B|-3-3-3-4-4-4-3-3-3-4-4-4-3-3-3-4-4-4-3-3-3-4-4-4-|
G|-2-2-2-3-3-3-2-2-2-3-3-3-2-2-2-3-3-3-2-2-2-3-3-3-|
D|-------------------------------------------------|
A|-------------------------------------------------|
E|-------------------------------------------------|
 |
e|-------------------------------------------------|
B|-------------------------------------------------|
G|---7---8---8---7---8---8---7---8---8---7---8---8-|
D|-7---7---8---7---7---8---7---7---8---7---7---8---|
A|-------------------------------------------------|
D|-------------------------------------------------|
 hogar

   Em      G          A          A4       Bm         E             A
e|-0-------3----------0----------0-----|--2----------0-------------0--|
B|-0-------3----------2----------3-----|--3----------0-------------2--|
G|-0-------0----------2----------2-----|--4----------1-------------2--|
D|-2-------0----------2----------2-----|--4----------2-------------2--|
A|-2-------2----------0----------0-----|--2----------2-------------0--|
E|-0-------3---------------------------|-------------0----------------|
 |
e|-------------------------------------|------------------------------|
B|-------------------------------------|------------------------------|
G|-------------------------------------|------------------------------|
D|-------------------------------------|------------------------------|
A|-------------------------------------|---------------------------0--|
D|-------------------------------------|------------------------------|
  Le da un beso a su esposa y se vuelve a encerrar a oscuras y en su sala


e|-----------------------------|
B|-----------------------------|
G|-----------------------------|
D|-----------------------------|
A|-----------------------------|
E|-----------------------------|
 |
e|-----------------------------|
B|-----------------------------|
G|-----------------------------|
D|-----------------------------|
A|-----------------------------|
D|-5---4-----------------------|
                de cuidar la mo-

   Synt arr. para guitarra
e|-17^^-------------------------------------|---------------|
B|------17h18p17h18p17h18p17h18p17h18p17h18-|------19^^-----|
G|------------------------------------------|-19^^----------|
D|------------------------------------------|---------------|
A|------------------------------------------|---------------|
E|------------------------------------------|---------------|
  ral...


   Flauta arr. para Guitarra:
e|-5^^-------------------------|-----------|
B|-----5h6p5h6p5h6p5h6p5h6p5h6-|-------7^^-|
G|-----------------------------|-7^^-------|
D|-----------------------------|-----------|
A|-----------------------------|-----------|
E|-----------------------------|-----------|


e|--5^^^^^^-----------------------------|----------------------------|
B|*-------------5h6p5h6p5h6p5h6p5h6p5h6-|-------------7^^^^^^^^-----*|
G|--------------------------------------|-7^^^^^^^^------------------|
D|--------------------------------------|----------------------------|
A|*-------------------------------------|---------------------------*|
E|--------------------------------------|----------------------------|
 |Bajo:
G|--------------------------------------|----------------------------|
D|*---------7---------------0--2^^------|-------------------2^------*|
A|*---5-7-8---5----0--2--3--------------|-----0-2-3-5-0-2-4---4-2^^-*|
E|--------------------------------------|---3------------------------|


   Dm   Am                                    Gm   A
e|-17^^-------------------------------------|---------------|
B|------17h18p17h18p17h18p17h18p17h18p17h18-|------19^^-----|
G|------------------------------------------|-19^^----------|
D|------------------------------------------|---------------|
A|------------------------------------------|---------------|
E|------------------------------------------|---------------|
 |Guitarra:
e|-5----5-----------------------------------|-3-----5-------|
B|-6----5-----------------------------------|-3-----5-------|
G|-7----5-----------------------------------|-3-----6-------|
D|-7----7-----------------------------------|-5-----7-------|
A|-5----7-----------------------------------|-5-----7-------|
E|------5-----------------------------------|-3-----5-------|


   Dm   Am
e|-17^^-------------------------------------|
B|------17h18p17h18p17h18p17h18p17h18p17h18-|
G|------------------------------------------|
D|------------------------------------------|
A|------------------------------------------|
E|------------------------------------------|
 |Guitarra:
e|-5----5-----------------------------------|
B|-6----5-----------------------------------|
G|-7----5-----------------------------------|
D|-7----7-----------------------------------|
A|-5----7-----------------------------------|
E|------5-----------------------------------|

   Gm    D    A  D    A  D    A  D    A              Bm
e|--------------------------------------------------------|
B|-------19^^-17-19^^-17-19^^-17-19^^-17^^-17h19p17--15^^-|
G|-19^^---------------------------------------------------|
D|--------------------------------------------------------|
A|--------------------------------------------------------|
E|--------------------------------------------------------|
 |
e|-3-----2----0--2----0--2----0--2----0--------------2----|
B|-3-----3----2--3----2--3----2--3----2--------------3----|
G|-3-----2----2--2----2--2----2--2----2--------------4----|
D|-5-----0----2--0----2--0----2--0----2--------------4----|
A|-5----------0-------0-------0-------0--------------2----|
E|-3------------------------------------------------------|


    Bm                  C#m
e|--2---2---2---2---2---4---4---4---4---4-|
B|--3---3---3---3---3---5---5---5---5---5-|
G|--4---4---4---4---4---6---6---6---6---6-|
D|--4---4---4---4---4---6---6---6---6---6-|
A|--2---2---2---2---2---4---4---4---4---4-|
E|----------------------------------------|
    Entra  ella  y  se  va desvistiendo

    C#                  F#
e|--4---4---4---4---4---2---2---2---2---2-|
B|--6---6---6---6---6---2---2---2---2---2-|
G|--6---6---6---6---6---3---3---3---3---3-|
D|--6---6---6---6---6---4---4---4---4---4-|
A|--4---4---4---4---4---4---4---4---4---4-|
E|----------------------2---2---2---2---2-|
    lentamente   y   casi   sonriendo

    Dm                  Am
e|--5---5---5---5---5---5---5---5---5---5-|
B|--6---6---6---6---6---5---5---5---5---5-|
G|--7---7---7---7---7---5---5---5---5---5-|
D|--7---7---7---7---7---7---7---7---7---7-|
A|--5---5---5---5---5---7---7---7---7---7-|
E|----------------------5---5---5---5---5-|
     alta   blanca   algo   exuberante

    Bb                  F#
e|--6---6---6---6---6---6---6---6---6---6-|
B|--6---6---6---6---6---7---7---7---7---7-|
G|--7---7---7---7---7---6---6---6---6---6-|
D|--8---8---8---8---8---8---8---8---8---8-|
A|--8---8---8---8---8---9---9---9---9---9-|
E|--6---6---6---6---6---------------------|
     dice   hola  y  camina hacia adelante

    Em                  D
e|--7---7---7---7---7---5---5---5---5---5-|
B|--8---8---8---8---8---7---7---7---7---7-|
G|--9---9---9---9---9---7---7---7---7---7-|
D|--9---9---9---9---9---7---7---7---7---7-|
A|--7---7---7---7---7---5---5---5---5---5-|
E|----------------------------------------|
     mira al hombre pequeño que se raya

    B7                  Gm
e|--7---7---7---7---7---10--10--10--10--10-|
B|--7---7---7---7---7---11--11--11--11--11-|
G|--8---8---8---8---8---12--12--12--12--12-|
D|--7---7---7---7---7---12--12--12--12--12-|
A|--9---9---9---9---9---10--10--10--10--10-|
E|--7---7---7---7---7----------------------|
     cuando   ella   sale de la pantalla


   Cm       B        Ebm      D    Em   Eb   F#m
e|-3.-----|-2.-----|-6.-----|-5.---7.---6.---9.---|
B|-4.-----|-4.-----|-7.-----|-7.---8.---8.---10.--|
G|-5.-----|-4.-----|-8.-----|-7.---9.---8.---11.--|
D|-5.-----|-4.-----|-8.-----|-7.---9.---8.---11.--|
A|-3.-----|-2.-----|-6.-----|-5.---7.---6.---9.---|
E|--------|--------|--------|---------------------|


piano en Dm  (2 compases)

   Dm                            Dm
e|-----------------------------|---------------5--------------|
B|-----------------------------|-6p5---5-6-6b8---6b8r6p5------|
G|-----------------------------|-----7-------------------7----|
D|---------------0-2-3-5/7-----|------------------------------|
A|---------0-1-3---------------|------------------------------|
D|-0-2-3-5---------------------|------------------------------|


       Dm
  Piano arr. para Guitarra:
e|---|-1--------------------------------|--------------------1---0-----|
B|---|-3--------------------------------|--------------------3---1-----|
G|---|-2--------------------------------|--------------------2---2-----|
D|---|-0--------------------------------|------------------------------|
A|---|----------------------------------|------------------------------|
E|---|----------------------------------|------------------------------|
 |Guitarra:
e|---|-1------------------1-------------|-1----------------------------|
B|---|-3------------------3-------------|-3----------------------------|
G|---|-2------------------2-------------|-2----------------------------|
D|---|-0------------------0-------------|-0----------------------------|
A|---|----------------------------------|------------------------------|
E|---|----------------------------------|------------------------------|
 |Bajo:
G|---|----------------------------------|------------------------------|
D|---|----------------------------------|------------------------------|
A|-0-|-5-------------0----5-----------0-|-5---------0-----5----------0-|
E|---|----------------------------------|------------------------------|
         Y el hombre la acuesta sobre la alfomra


   Dm
  Piano arr. para Guitarra:
e|-----1-----0-------------1----0---|-----1---0----------1---0-----|
B|-----3-----1-------------3----1---|-----3---1----------3---1-----|
G|-----2-----2-------------2----2---|-----2---2----------2---2-----|
D|----------------------------------|------------------------------|
A|----------------------------------|------------------------------|
E|----------------------------------|------------------------------|
 |Guitarra:
e|----------------------------------|-1---------------1------------|
B|----------------------------------|-3---------------3------------|
G|----------------------------------|-2---------------2------------|
D|----------------------------------|-0---------------0------------|
A|----------------------------------|------------------------------|
E|----------------------------------|------------------------------|
 |Bajo:
G|----------------------------------|------------------------------|
D|----------------------------------|------------------------------|
A|-5-------------0----5-----------0-|-5---------0-----5----------0-|
E|----------------------------------|------------------------------|
         La toca y la besa pero no la nombra

      D      Db/D     D     Eb        E        F        F#        G
e|----2------1----------------------|--------------------------------|
B|----3------2----------------------|--------------------------------|
G|----2------1--------2-----3-------|-4--------5--------6---------7--|
D|----0------0--------0-----1-------|-2--------3--------4---------5--|
A|--------------------0-----1-------|-2--------3--------4---------5--|
D|--------------------0-----1-------|-2--------3--------4---------5--|
Se contiene suda y despues con sus tijeras plateadas recorta su cuerpo

      G#       A      Bb       B      C       Db       D       Eb
e|----------------------------------|--------------------------------|
B|-------------2------3--------4----|-5-------6--------7-------8-----|
G|----8--------2------3--------4----|-5-------6--------7-------8-----|
D|----6--------2------3--------4----|-5-------6--------7-------8-----|
A|----6--------0------1--------2----|-3-------4--------5-------6-----|
D|----6-----------------------------|--------------------------------|
  le corta su pelo deforma su cara y asi mutilada la lleva cargada

       E         F        F#
e|---------------------------------|
B|-----9---------10-------11-------|
G|-----9---------10-------11-------|
D|-----9---------10-------11-------|
A|-----7---------8--------9--------|
D|---------------------------------|
    Hasta la pantalla justo a la ma-

    Dm      Am       Gm     A5 D5 A5 D5 A5 D5 A5 D5
e|--5-------5------|-3------------------------------|x3
B|*-6-------5------|-3-----------------------------*|
G|--7-------5------|-3---------7-----7-----7-----7--|
D|--7-------7------|-5------7--7--7--7--7--7--7--7--|
A|*-5-------7------|-5------7--5--7--5--7--5--7--5-*|
E|----------5------|-3------5-----5-----5-----5-----|
ñana__________________.

   Dm                Am                  Gm                D5
   Guitarra:
e|-5-----------------5-----------------|-3---------------------------|
B|-6-----------------5-----------------|-3---------------------------|
G|-7-----------------5-----------------|-3-----------------7---------|
D|-7-----------------7-----------------|-5-----------------7---------|
A|-5-----------------7-----------------|-5-----------------5---------|
E|-------------------5-----------------|-3---------------------------|
 |Bajo:
G|-------------------------------------|-----------------------------|
D|-------17----17-------14----14----14-|----12----12----12-----------|
A|-15-18----18----18-12----12----12----|-10----10----10----5---------|
E|-------------------------------------|-----------------------------|


  Bajo:
G|------------------|---------------|----------------|---------|
D|------------------|---------------|----------------|---------|
A|-6---4---5--------|-6---4---5-----|-6---4---5------|-6---4---|
E|------------------|---------------|----------------|---------|


e|-2-------2-2-2-2--------2-2-2-3------3-3-3-3---3-3-3-|
B|-3-------3-3-3-3--------3-3-3-5------5-5-5-3---3-3-3-|
G|-2-------2-2-2-2--------2-2-2-5------5-5-5-0---0-0-0-|
D|-0-------0-0-0-0--------0-0-0-0------0-0-0-0---0-0-0-|
A|-----------------------------------------------------|
E|-----------------------------------------------------|
 |
e|---------------------------------------12------------|
B|------------------------------------13----15.-13-15.-|
G|-12p11----11-14^^-12h14p12-11----12------------------|
D|-------12---------------------14---------------------|
A|-----------------------------------------------------|
E|-----------------------------------------------------|


e|-2-------2-2-2-2--------2-2-2-3------3-3-3-3---3-3-3-|
B|-3-------3-3-3-3--------3-3-3-5------5-5-5-3---3-3-3-|
G|-2-------2-2-2-2--------2-2-2-5------5-5-5-0---0-0-0-|
D|-0-------0-0-0-0--------0-0-0-0------0-0-0-0---0-0-0-|
A|-----------------------------------------------------|
E|-----------------------------------------------------|
 |
e|-15-14-12----12-14^^---12----------------------------|
B|----------15--------------15-------------------------|
G|-----------------------------------------------------|
D|-----------------------------------------------------|
A|-----------------------------------------------------|
E|-----------------------------------------------------|

3er Verso:

e|-2---2-2-2-2---2-2-2-3---3-3-3-3---3-3-3-|
B|-3---3-3-3-3---3-3-3-5---5-5-5-3---3-3-3-|
G|-2---2-2-2-2---2-2-2-5---5-5-5-0---0-0-0-|
D|-0---0-0-0-0---0-0-0-0---0-0-0-0---0-0-0-|
A|-----------------------------------------|
E|-----------------------------------------|
    No conozco tu cuerpo ni se mas quien

e|-2---2-2-2-2---2-2-2-3---3-3-3-3---3-3-3-|
B|-3---3-3-3-3---3-3-3-5---5-5-5-3---3-3-3-|
G|-2---2-2-2-2---2-2-2-5---5-5-5-0---0-0-0-|
D|-0---0-0-0-0---0-0-0-0---0-0-0-0---0-0-0-|
A|-----------------------------------------|
E|-----------------------------------------|
   So___________s

e|-2---2-2-2-2---2-2-2-3---3-3-3-3---3-3-3-|
B|-3---3-3-3-3---3-3-3-5---5-5-5-3---3-3-3-|
G|-2---2-2-2-2---2-2-2-5---5-5-5-0---0-0-0-|
D|-0---0-0-0-0---0-0-0-0---0-0-0-0---0-0-0-|
A|-----------------------------------------|
E|-----------------------------------------|
    Vi tu nombre en los diarios y nadie te

e|-2---2-2-2-2-----------------------------|
B|-3---3-3-3-3-----------------------------|
G|-2---2-2-2-2-----------------------------|
D|-0---0-0-0-0-----------------------------|
A|-----------------------------------------|
E|-----------------------------------------|
   vió_________________

   Em    G        A        A4
e|-0-----3--------0--------0-----|
B|-0-----3--------2--------3-----|
G|-0-----0--------2--------2-----|
D|-2-----0--------2--------2-----|
A|-2-----2--------0--------0-----|
E|-0-----3-----------------------|
  La pantalla que sangra ya nos dice

   D             Eb   D              B
e|----------------------------------------|
B|-3-3-3-3-3-3-3-4----3-3-3-3-3-3-3-------|
G|-2-2-2-2-2-2-2-3----2-2-2-2-2-2-2--4----|
D|-----------------------------------4----|
A|----------------------------------------|
E|----------------------------------------|
 adiós

   Em    G        A      A4       Bm      E            A
e|-0-----3--------0------0-----|--2-------0------------0--|
B|-0-----3--------2------3-----|--3-------0------------2--|
G|-0-----0--------2------2-----|--4-------1------------2--|
D|-2-----0--------2------2-----|--4-------2------------2--|
A|-2-----2--------0------0-----|--2-------2------------0--|
E|-0-----3---------------------|----------0---------------|
 |
e|-----------------------------|--------------------------|
B|-----------------------------|--------------------------|
G|-----------------------------|--------------------------|
D|-----------------------------|--------------------------|
A|-----------------------------|-----------------------0--|
D|-----------------------------|--------------------------|
Te veré en veinta años en televisión cortada y aburrida


e|-----------------------|
B|-----------------------|
G|-----------------------|
D|-----------------------|
A|-----------------------|
E|-----------------------|
 |
e|-----------------------|
B|-----------------------|
G|-----------------------|
D|-----------------------|
A|-----------------------|
D|-5---4---0-------------|
                A todo co-


e|--2--------3-----------|--5--------7-----------|
B|--3--------3-----------|--7--------8-----------|
G|--2--------0-----------|--7--------7-----------|
D|--0--------0-----------|--7--------0-----------|
A|-----------------------|--5--------------------|
E|-----------------------|-----------------------|
   lor          a  todo  color          a todo co-


e|-10---------15-----------|--15------14----------|
B|-10---------15-----------|--17------15----------|
G|-11---------12-----------|--17------14----------|
D|-12---------0------------|----------12----------|
A|-12----------------------|----------------------|
E|-10----------------------|----------------------|
   lor               a       todo    color


(tijeretazo)


Hecho por Luis Loayza
LA Paz - Bolivia
Comentarios y correcciones:
louizloayza@
Suggest correction
Give kudos to tab author, rate the tab!
1 2 3 4 5
comments
print report bad tab
guest
Wanna post a correction for this tab? Suggest correction