Oops, an error
Loading. Please wait.

Mr. Jones, O Pequeña Semblanza De Una Familia Chords

124 views 1 this week
no commentswrite comment
1 2 3 4 5
3 more votes to show rating
add to favorites
launch autoscroll
font size
0
reset
transpose
0
reset
simplify chords
display chords
guitar tuner
Autoscroll
slow
fast
+/-
esc
set tempo
stop
Help us to improve Ultimate-Guitar.com Take our survey!
×
MR. JONES O PEQUEÑA SEMBLANZA DE UNA FAMILIA TIPO AMERICANA

Intro: [A B7 E7/#9]

     A
Mr. Jones abrió la puerta
            B7
y vio a su madre recién muerta
     E7                           A  G  E7/#9
y la sangre en el chaleco se limpió.
             A
Guardó a su madre en el ropero,
     B7
le puso más leña al fuego,
      E7                       A
el invierno muy crudo se avecinó.

             D
Llamó a su esposa y le dijo,
             A
"Mamá está muerta en el ropero"
         B7                  E7
"Por supuesto, si yo la asesiné",
      A
ella puso mal la mesa,
            B7
le hundí un hacha en la cabeza
     E7                         A
y la sangre el tapizado me manchó

("Ay que pena nena!")

Solo: Como Intro 2 veces

Y Mr. Jones trabajaba
y su esposa asesinaba
y los chicos correteaban por ahí.
Se comían los pajaritos,
los perros y los gatitos,
y otros bichos que vagaban por ahí.

Y llegó la policía,
con dos carros y un tranvía,
para toda la familia encarcelar

        A
"Yo no sé por qué, sargento,
      B7
me lleva el destacamento,
     E7                      A*  G#  G  F#
si somos una familia muy normal,
     B7        E7            A*  G#  G  F#
si somos una familia muy normal,
     B7        E7            A* (Riff)
si somos una familia muy normal"
Riff:

   A                       G#-A                        A5
|----5------5------5-------|--|---7b-7-5--------------|--|
|-/5---5--4---4--3---3--2--|--|-5--------7-5----------|--|
|--------------------------|--|-----------------------|--|
|--------------------------|--|--------------5-4------|--|
|--------------------------|--|------------------7-4--|--|
|--------------------------|--|-----------------------|--|

Gracias al autor original por el riff

Acordes:

   A    B7   E7/#9  E7     G
|-----|--2--|--X--|--0--|--3--|
|--3--|--0--|--8--|--5--|--3--|
|--3--|--2--|--7--|--7--|--4--|
|--3--|--1--|--6--|--6--|--5--|
|--0--|--2--|--7--|--7--|--5--|
|--X--|--X--|--0--|--0--|--3--|

   D    A*    G#    F#
|--2--|--5--|--4--|--2--|
|--3--|--5--|--4--|--2--|
|--2--|--6--|--5--|--3--|
|--0--|--7--|--6--|--4--|
|--X--|--7--|--6--|--4--|
|--X--|--5--|--4--|--2--|

Dudas, comentarios, etc: milathewho@ Saludos!.
Suggest correction
Give kudos to tab author, rate the tab!
1 2 3 4 5
comments
print report bad tab
guest
You may want to rate the tab now too:
select rating
Wanna post a correction for this tab? Suggest correction